Against Me - Justin Chords & Tabs

 

Justin Chords & Tabs

Against Me Chords & Tabs

Version: 1 Type: Tab 0 ratings
1 star 2 stars 3 stars 4 stars 5 stars
comments

Justin Tab

   
-------------------------------------------------------------------------------
			     Justin - Against Me!
-------------------------------------------------------------------------------
Tabbed by: Greg Y.
Email: Superpiper45@hotmail.com

Tuning:e B G D A e

Intro:
|-3--3--3----3--3-------------------------------------------------------------|
|-5--3--3----5--3---3---------------------------------------------------------|
|-5--4--0----5--4---4---------------------------------------------------------|
|------------------- 5--------------------------------------------------------|
|-----------------------------------------------------------------------------|
|-----------------------------------------------------------------------------|

Verse Guitar 1:
|--2-------3-------3--------------------------------------------------------|
|--3---1---3-------3--------------------------------------------------------|
|--2---0---0-------0--------------------------------------------------------|
|--0---2---0-------0--------------------------------------------------------|
|------3---2-------2--------------------------------------------------------|
|----------3-------3--------------------------------------------------------|
[ Tab from: http://www.guitartabs.cc/tabs/a/against_me/justin_tab.html ]
Verse Guitar 2:
|--2-------3-------3------3---------------------------------------------------|
|--3---1---3---------3------3---3---------------------------------------------|
|--2---0---0-----0-----0------0-----------------------------------------------|
|--0---2---0------------------------------------------------------------------|
|------3---2------------------------------------------------------------------|
|----------3------------------------------------------------------------------|

Chorus:
|---------------------------------------------------------------------------------|
|---------------------------------------------------------------------------------|
|-7-7-7-7-9-11-12- 12- 12- 12-11-9-12- 12- 12- 12-11-9-12- 12- 12- 12-11-9- ------|
|---------------------------------------------------------------------------------| 2x
|-5-5-5-5-7- 9- 10- 10- 10- 10- 9- 7- 10- 10- 10- 10- 9-7- 10- 10- 10-10- 9-7-----|
|---------------------------------------------------------------------------------|

Bridge thing:
|--------------------------15-----------------------------------------------|
|--------------------------15-----------------------------------------------|
|--7-----5---4-5-4---------0------------------------------------------------|
|-- ----- 5---------5-------------------------------------------------------|
|--5-----3------------------------------------------------------------------|
|---------------------------------------------------------------------------|
The bridge in the end is the same as this one above but it has some different strumming 
so you gotta figure it out.
Comments