Against Me - Jokes On Us Chords & Tabs

 

Jokes On Us Chords & Tabs

Against Me Chords & Tabs

Version: 1 Type: Chords 0 ratings
1 star 2 stars 3 stars 4 stars 5 stars
comments

Jokes On Us Chords

   
-------------------------------------------------------------------------------
                 Jokes On Us (now "Holy Shit!") - Against Me!
-------------------------------------------------------------------------------
Tabbed by: Stephen D'Angelo
Email: mallow40@hotmail.com
-------------------------------------------------------------------------------
Tuning: Standard
-------------------------------------------------------------------------------
During everyother progression or so of the verses,
the last Am is strummed differently, just listen
to the song to figure out the changes
-------------------------------------------------------------------------------
You can play this as power cords or just open chords:

Power:
   F   E   A   G
e|-x---x---x---x-|
B|-x---x---x---x-|
G|-x---x---2---x-|
D|-3---2---2---5-|
A|-3---2---0---5-|
E|-1---0---x---3-|

Open:
   F   E   Am  G
e|-1---0---0---3-|
B|-1---0---1---3-|
G|-2---1---2---0-|
D|-3---2---2---0-|
A|-3---2---0---2-|
E|-1---0---x---3-|
-------------------------------------------------------------------------------
Verse x6
F	E	Am

Chorus 
G	Am	F x4

E

Verse x4

Chorus x3

Repeat the last E a bunch of times
-------------------------------------------------------------------------------
[ Tab from: http://www.guitartabs.cc/tabs/a/against_me/jokes_on_us_crd.html ]
Comments