Against Me - Impact Chords & Tabs

 

Impact Chords & Tabs

Against Me Chords & Tabs

Version: 2 Type: Tab 0 ratings
1 star 2 stars 3 stars 4 stars 5 stars
comments

Impact Tab

Against Me! - Impact
Tabbed by: fatmelvin11
This is my first tab so im not sure its 100% correct but close enough.

Standard Tunning

Intro:
x1
e---------------------------------------------------3-|
B--1--*--0------1--*--0------1--*--0------1--*--0---3-|
G--0--*--0------0--*--0------2--*--2------0--*--0---0-|
D--2--*--2--x2--2--*--2--x2--3--*--3--x2--2--*--2---0-|
A--3--*--3------0--*--0------3--*--3------3--*--3---2-|
E---------------------------------------------------3-|
[ Tab from: http://www.guitartabs.cc/tabs/a/against_me/impact_tab_ver_2.html ]
Verse:
x2
e----------------------------------------------------3--3--3--3-|
B--1-1--0-0----1-1--0-0-----1-1--0-0-----1-1--0-0----3--3--3--3-|
G--0-0--0-0----0-0--0-0-----2-2--2-2-----0-0--0-0----0--0--0--0-|
D--2-2--2-2-x4-2-2--2-2-x4--3-3--3-3-x4--2-2--2-2-x2-0--0--0--0-|
A--3-3--3-3----2-2--2-2-----3-3--3-3-----3-3--3-3----2--2--2--2-|
E--------------0-0--0-0------------------------------3--3--3--3-|

Chorus/Ending(Play slower on ending): Not exact number of strums
x3
e---------------------------------|
B--1--1-----1--1----1--1----1---1-|
G--0--0-----0--0----2--2----0---0-|
D--2--2-----2--2----3--3----2---2-|
A--3--3-----0--0----3--3----3---3-|
E---------------------------------|

Intro  x1
Verse  x2
Chorus x3
Verse  x2
Chorus x3
Ending x1

Tab Legend:
* Pause/Stop Strum

Pretty easy
Comments