Against Me - Impact Chords & Tabs

 

Impact Chords & Tabs

Against Me Chords & Tabs

Version: 1 Type: Tab 0 ratings
1 star 2 stars 3 stars 4 stars 5 stars
comments

Impact Tab

-----------------------------------------------------------------------
			Impact - Against Me!
-----------------------------------------------------------------------
Tabbed by:nb
Email:nsoccerguy22@yahoo.com

Tuning:standard

This is just the intro to impact a great early song from am.



[ Tab from: http://www.guitartabs.cc/tabs/a/against_me/impact_tab.html ]
Play each chord 4x
e|---2-----1-----2-----0----|
B|---2-----1-----2-----1----|
G|---3-----2-----3-----0----|
D|---4-----3-----4-----2----|
A|---x-----x-----4-----3----|
E|---x-----x-----2-----x----|




Then it starts into the song with the same chords but changes when the chorus comes in.
This is my first tab so if you have any comments or suggestions for the rest of the song
just email me.
Comments