Against Me - High Pressure Low Chords & Tabs

 

High Pressure Low Chords & Tabs

Against Me Chords & Tabs

Version: 1 Type: Bass Tab

High Pressure Low Bass Tab

   
AGAINST ME
HIGH PRESSURE LOW
WHITE CROSSES (2010)

INTRO
G:|------------------11-11-111111-9-9-9-89-| X4
D:|-9-9-9-98-9-11-98-----------------------|
A:|----------------------------------------|
E:|----------------------------------------|

G:|----------------------------------------|
D:|----------------------------------------|
A:|-7xx-6xx-4-444/6\44---------------------|
E:|----------------------------------------|

VERSE
G:|----------------------------------------|
D:|----------------------------------------|
A:|-222-222-222-222-222-222-222-222--------|
E:|----------------------------------------|

G:|----------------------------------------|
D:|----------------------------------------|
A:|----------------------------------------|
E:|-000-000-000-000-000-000-000-000--------|

G:|----------------------------------------|
D:|----------------------------------------|
A:|-222-222-222-222-1/22-222-222-222-------|
E:|----------------------------------------|

G:|----------------------------------------|
D:|--------------------------------2-2-2---|
A:|----------------------------------------|
E:|-2-2-222-222-0-0-0-1/22-222-222---------|

G:|----------------------------------------|
D:|----------------------------------------|
A:|-222-222-222-222-222-222-222-222--------|
E:|----------------------------------------|

G:|----------------------------------------|
D:|----------------------------------------|
A:|----------------------------------------|
E:|-000-000-000-000-000-000-000-000--------|

G:|----------------------------------------|
D:|----------------------------------------|
A:|-222-222-222-222-1/22-222-222-222-------|
E:|----------------------------------------|

G:|----------------------------------------|
D:|----------------------------------------|
A:|----------------------------------------|
E:|-2-2-222-222-0-0-0-1/22-222-44442222----|

Chorus
G:|----------------------------------------| X2
D:|----------------------------------------|
A:|-----------------222-222----------------|
E:|-000-000-000-000---------222-222--------|

G:|----------------------------------------------|
D:|----------------------------------------------|
A:|-----------------222-222----------------------|
E:|-000-000-000-000---------1/2222-1/2222-1/2222-|

INTRO
VERSE
CHORUS
INTRO
[ Tab from: http://www.guitartabs.cc/tabs/a/against_me/high_pressure_low_btab.html ]
MIDDLE EIGHT
G:|----------------------------------------|
D:|----------------------------------------|
A:|-555-555-555-555-555-555-555-555--------|
E:|----------------------------------------|

G:|----------------------------------------|
D:|----------------------------------------|
A:|----------------------------------------|
E:|-333-333-333-333-333-333-333-333--------|

G:|----------------------------------------|
D:|----------------------------------------|
A:|-555-555-555-555-4/55-555-555-555-------|
E:|----------------------------------------|

G:|----------------------------------------|
D:|-------------------------------5-5-5----|
A:|----------------------------------------|
E:|-5-5-555-555-3-3-3-3/5-555-555----------|

G:|----------------------------------------|
D:|----------------------------------------|
A:|-555-555-555-555-555-555-555-555--------|
E:|----------------------------------------|

G:|----------------------------------------|
D:|----------------------------------------|
A:|----------------------------------------|
E:|-333-333-333-333-333-333-333-333--------|

G:|----------------------------------------|
D:|----------------------------------------|
A:|-555-555-555-555-4/55-555-555-555-------|
E:|----------------------------------------|

G:|----------------------------------------|
D:|----------------------------------------|
A:|----------------------------------------|
E:|-5-5-555-555-3-3-3-3/5-555-555-77775555-|

FINAL CHORUS
G:|----------------------------------------|
D:|----------------------------------------|
A:|-----------------555-555----------------|
E:|-333-333-333-333---------555-555--------|

G:|-------------------------|
D:|-------------------------|
A:|-----------------555-555-|
E:|-333-333-333-333---------|

THEN
G:|-------------------------| X3
D:|-------------------------|
A:|-11/12121212121212-------|
E:|-------------------------|

ENDING
G:|--------------------------14-14-141414-12-12-12-1112-| X4
D:|-12-12-12-1211-12-14-1211----------------------------|
A:|-----------------------------------------------------|
E:|-----------------------------------------------------|

G:|-----------------------------| 
D:|-----------------------------|
A:|-10xx-9xx-7-7-777-7-77-7/999-|
E:|-----------------------------|

G:|-----------| 
D:|-----------|
A:|-5-5-5---5~|
E:|-------5---|