Against Me - From Her Lips To Gods Ears The Energizer Chords & Tabs

 

From Her Lips To Gods Ears The Energizer Chords & Tabs

Against Me Chords & Tabs

Version: 1 Type: Tab 0 ratings
1 star 2 stars 3 stars 4 stars 5 stars
comments

From Her Lips To Gods Ears The Energizer Tab

   
Intro
(gtr 1)
e|---------------------------------|---------------------------------|
b|---------------------------------|---------------------------------|
g|---------------------------------|-----------------9---7---6---4---|
d|---------------------------------|---7-------------x---x---x---x---|
a|---4-------------------2---------|-5-5-------------7---5---4---2---|
e|-2-2-------------2-4-5---5-4-2-4-|---------------------------------|
   F#              A                 D               E

e|---------------------------------|---------------------------------|
b|---------------------------------|---------------------------------|
g|---------------------------------|---------------------------------|
d|---------------------------------|---------------------------------|
a|---4-------------------2---------|-2-2-2-2-2-2-2-2-2-2-2-2-2-2-2-2-|
e|-2-2-------------2-4-5---5-4-2-4-|-0-0-0-0-0-0-0-0-0-0-0-0-0-0-0-0-|
   F#              A                 E

Gtr 2 (gtr 2)
e|---------------------------------|---------------------------------|
b|---------------------------------|---------------------------------|
g|---------------------------------|---------------------------------|
d|---------------------------------|-7-7-7-7-7-7-7-7-9-9-9-9-9-9-9-9-|
a|-4-4-4-4-4-4-4-4-7-7-7-7-7-7-7-7-|-5-5-5-5-5-5-5-5-7-7-7-7-7-7-7-7-|
e|-2-2-2-2-2-2-2-2-5-5-5-5-5-5-5-5-|---------------------------------|
   F#              A                 D               E

e|---------------------------------|---------------------------------|
b|---------------------------------|---------------------------------|
g|---------------------------------|---------------------------------|
d|---------------------------------|---------------------------------|
a|-4-4-4-4-4-4-4-4-7-7-7-7-7-7-7-7-|-2-2-2-2-2-2-2-2-2-2-2-2-2-2-2-2-|
e|-2-2-2-2-2-2-2-2-5-5-5-5-5-5-5-5-|-0-0-0-0-0-0-0-0-0-0-0-0-0-0-0-0-|
   F#              A                 E

Verse
e|---------------------------------|---------------------------------|
b|---------------------------------|---------------------------------|
g|---------------------------------|---------------------------------|
d|---------------------------------|-7-7-7-7-7-7-7-7-9-9-9-9-9-9-9-9-|
a|-4-4-4-4-4-4-4-4-7-7-7-7-7-7-7-7-|-5-5-5-5-5-5-5-5-7-7-7-7-7-7-7-7-|
e|-2-2-2-2-2-2-2-2-5-5-5-5-5-5-5-5-|---------------------------------|
   F#              A                 D               E
[ Tab from: http://www.guitartabs.cc/tabs/a/against_me/from_her_lips_to_gods_ears_the_energizer_tab.html ]
e|---------------------------------|---------------------------------|
b|---------------------------------|---------------------------------|
g|---------------------------------|---------------------------------|
d|---------------------------------|---------------------------------|
a|-4-4-4-4-4-4-4-4-7-7-7-7-7-7-7-7-|-2-2-2-2-2-2-2-2-2-2-2-2-2-2-2-2-|
e|-2-2-2-2-2-2-2-2-5-5-5-5-5-5-5-5-|-0-0-0-0-0-0-0-0-0-0-0-0-0-0-0-0-|
   F#              A                 E

Post Verse 1
e|---------------------------------|---------------------------------|
b|---------------------------------|---------------------------------|
g|---------------------------------|---------------------------------|
d|---------------------------------|-----------------7-7-7-7---------|
a|-4-4-4-4-4-4-4-4-7-7-7-7-2-2-2-2-|-4-4-4-4-4-4-4-4-5-5-5-5-7-7-2-2-|
e|-2-2-2-2-2-2-2-2-5-5-5-5-0-0-0-0-|-2-2-2-2-2-2-2-2---------5-5-0-0-|
   F#              A       E         F#              D       A   E

e|---------------------------------|---------------------------------|
b|---------------------------------|---------------------------------|
g|---------------------------------|-9---------------9---7---6---4---|
d|---------------------------------|-x---------------x---x---x---x---|
a|-4-4-4-4-4-4-4-4-7-7-7-7-2-2-2-2-|-7---------------7---5---4---2---|
e|-2-2-2-2-2-2-2-2-5-5-5-5-0-0-0-0-|---------------------------------|
   F#              A       E         E

play intro again

Verse 2 has a harmonic thing at the beginning that goes like this
e|---------------------------------|---------------------------------|
b|---------------------------------|---------------------------------|
g|-11--11--11--13--14--14--14--14--|-17--17--17--17--19--19--19--19--|
d|-x---x---x---x---x---x---x---x---|-x---x---x---x---x---x---x---x---|
a|-9---9---9---11--12--12--12--12--|-15--15--15--15--17--17--17--17--|
e|---------------------------------|---------------------------------|
   F#              A                 D               E

Post Verse 2
e|---------------------------------|---------------------------------|
b|---------------------------------|---------------------------------|
g|---------------------------------|---------------------------------|
d|---------------------------------|-----------------7-7-7-7---------|
a|-4-4-4-4-4-4-4-4-7-7-7-7-2-2-2-2-|-4-4-4-4-4-4-4-4-5-5-5-5-7-7-2-2-|
e|-2-2-2-2-2-2-2-2-5-5-5-5-0-0-0-0-|-2-2-2-2-2-2-2-2---------5-5-0-0-|
   F#              A       E         F#              D       A   E

e|---------------------------------|---------------------------------|
b|---------------------------------|---------------------------------|
g|---------------------------------|-9-------------------------------|
d|---------------------------------|-x-------------------------------|
a|-4-4-4-4-4-4-4-4-7-7-7-7-2-2-2-2-|-7-------------------------------|
e|-2-2-2-2-2-2-2-2-5-5-5-5-0-0-0-0-|---------------------------------|
   F#              A       E         E

play the verse for the chorus part (when the say condaleeza a lot)
then play post verse 1
end on F#
Comments