Against Me - Disco Before The Breakdown Chords & Tabs

 

Disco Before The Breakdown Chords & Tabs

Against Me Chords & Tabs

Version: 1 Type: Tab 0 ratings
1 star 2 stars 3 stars 4 stars 5 stars
comments

Disco Before The Breakdown Tab

Tuning: normal

Verse
e|----------------------------------------------------------------------|
b|----------------------------------------------------------------------|
g|-9-9-9-9--8-8-8-8--6-6-6-6-6-6-6-6------------------------------------|
d|-9-9-9-9--8-8-8-8--6-6-6-6-6-6-6-6--4-4-4-4--6-6-6-6--7-7-7-7-7-7-7-7-|
a|-7-7-7-7--6-6-6-6--4-4-4-4-4-4-4-4--4-4-4-4--6-6-6-6--7-7-7-7-7-7-7-7-|
e|------------------------------------2-2-2-2--4-4-4-4--5-5-5-5-5-5-5-5-|

Pre-Chorus
e|-----------------------------------|
b|-----------------------------------|
g|----------4-4-4-4--6-6-6-6-6-6-6-6-|
d|-7-7-7-7--4-4-4-4--6-6-6-6-6-6-6-6-|
a|-7-7-7-7--2-2-2-2--4-4-4-4-4-4-4-4-|
e|-5-5-5-5---------------------------|
[ Tab from: http://www.guitartabs.cc/tabs/a/against_me/disco_before_the_breakdown_tab.html ]
Pre-Chorus Trumpet Thing
e|----------------------------|
b|-10--------9----------------|
g|-------------9----9----9----|
d|--------------------11---11-|
a|----------------------------|
e|----------------------------|

Chorus
e|-----------------------------------------------------------------------|
b|-----------------------------------------------------------------------|
g|------------------4-4-4-4-4-4-4-4--6-6-xxxx--4-4-xxxx------------------|
d|-7-7-7-7-7-7-7-7--4-4-4-4-4-4-4-4--6-6-xxxx--4-4-xxxx--7-7-7-7-7-7-7-7-|
a|-7-7-7-7-7-7-7-7--2-2-2-2-2-2-2-2--4-4-xxxx--2-2-xxxx--7-7-7-7-7-7-7-7-|
e|-5-5-5-5-5-5-5-5---------------------------------------5-5-5-5-5-5-5-5-|

Listen to it... it's quite easy.

You can figure out the solo thingy
Comments