Against Me - Baby Im An Anarchist Chords & Tabs

 

Baby Im An Anarchist Chords & Tabs

Against Me Chords & Tabs

Version: 1 Type: Tab 0 ratings
1 star 2 stars 3 stars 4 stars 5 stars
comments

Baby Im An Anarchist Tab

   
              = = = = = = = = = = = = = = = = = = = 
              =  Baby, Im An Anarchist-Against me =
              = = = = = = = = = = = = = = = = = = =

Tabbed by Giorgio. Pasqualini

I would say this tab is fully correct cause ive played it with the song and it just
sounded like an echo so i can assure you its a great tab. 

**CHORDS ARE AT THE BOTTOM OF THE PAGE FOR VERSES**

INTRO:

E---------0-----0----1---0-0-0------E     *play once*
b---------1-----1----1---0-0-0-3-1--b
g---------0-----2----2--------------g
d---------2-----2--3-3--------------d
a-0-2-0-3-3-3-0-0--3-3-2------------a
e---------0--------1-1-3------------e
[ Tab from: http://www.guitartabs.cc/tabs/a/against_me/baby_im_an_anarchist_tab.html ]
E------0-----0-----1----------E  *play once*
b------1-----1-----1----------b
g------0-----2-----2----------g
d------2-----2--3--3-3-3/5-5--d
a--3-3-3-3-0-0--3--3-3-3/5-5--a
e------0--------1--1-1-1/3-3--e

VERSES:
*strum chords a few times each and listen for beat and rythym*

C,  Am,   F,   G,    **REPEAT AS MANY TIMES AS NEEDED**



CHORUS: 
*strum chords a few times each and listen for beat and rythym*

Em,   F,    C,     G



***CHORDS***

  C   Am  F   G  Em
  +   +   +   +   +
E-0---0---1---3---0---E
b-1---1---1---3---0---b
g-0---2---2---0---0---g
d-2---2---3---0---2---d
a-3---0---3---2---2---a
e-0---0---1---3---0---e
Comments