Against Me - America Still Sleeps Tonight Chords & Tabs

 

America Still Sleeps Tonight Chords & Tabs

Against Me Chords & Tabs

Version: 1 Type: Tab 0 ratings
1 star 2 stars 3 stars 4 stars 5 stars
comments

America Still Sleeps Tonight Tab

-------------------------------------------------------------------------------
			     America Still Sleeps Tonight - Against Me!
-------------------------------------------------------------------------------
Tabbed by:Matt Gilles
Email: insaneotter9@yahoo.com

Tuning:Standard

Tabbed from the version on Crime. The ska chords can be substitued for regular barre
chords, if they need to sound any stronger. It'd sound better barred if tit's 
being played acoustic, but be sure to accent the bottom few strings. 


intro
e|----2-----2-----3-----3-----2-----2----------------------------------------|
B|----3-----3-----3-----3-----2-----2----------------------------------------|
G|-4--4--4--4-----4-----4-----3-----3----------------------------------------|
D|-------------5--5--5--5--4--4--4--4--4--5--5--5--5--4--2-------------------|
A|---------------------------------------------------------------------------|
E|---------------------------------------------------------------------------|

part 1 (x2)
e|--2--2--3--3--2--2--2--2-| 
B|--3--3--3--3--2--2--2--2-|
G|--4--4--4--4--3--3--3--3-|
D|--------5--5--4--4--4--4-|
A|-------------------------|
E|-------------------------|
[ Tab from: http://www.guitartabs.cc/tabs/a/against_me/america_still_sleeps_tonight_tab.html ]
part 2
e|-------5----2----3-----------0----3----0----3----0----3--------------------|
B|--7----5----3----3-----------2----3----2----3----2----3--------------------|
G|--7----6----4----4---repeat--2----4----2----4----2----4--------------------|
D|--7----7---------5-----------0----5----0----5----0----5--------------------|
A|-----------------------------0----5----0----5----0----5--------------------|
E|-----------------------------0----3----0----3----0----3--------------------|

part 3 (general chord progression, combination of parts 1 and 2)
e|--2--3--2-------------5--2--3----------3--3--3--3--3--3--------------------|
B|--3--3--2--repeat--7--5--3--3--repeat--3--3--3--3--3--3--------------------|
G|--4--4--3---(2x)---7--6--4--4----------4--4--4--4--4--4--------------------|
D|-----5--4----------7--7-----5----------5--5--5--5--5--5--------------------|
A|---------------------------------------3--3--3--3--3--3--------------------|
E|---------------------------------------0--3--0--3--0--3--------------------|

part 3 (a second time)
e|--2--3--2-------------5--2--3----------3--3--3--3--3--3--------------------|
B|--3--3--2--repeat--7--5--3--3--repeat--3--3--3--3--3--3--------------------|
G|--4--4--3---(2x)---7--6--4--4---(2x)---4--4--4--4--4--4--------------------|
D|-----5--4----------7--7-----5----------5--5--5--5--5--5--------------------|
A|---------------------------------------3--3--3--3--3--3--------------------|
E|---------------------------------------0--3--0--3--0--3--------------------|

outro
e|--3--3--3--3--3--3--------------------|
B|--3--3--3--3--3--3--------------------|
G|--4--4--4--4--4--4--------------------|
D|--5--5--5--5--5--5--------------------|
A|--3--3--3--3--3--3--------------------|
E|--0--3--0--3--0--3--------------------|



===============================================================================
Comments