Against All Authority - We All Fall Down Chords & Tabs

 

We All Fall Down Chords & Tabs

Against All Authority Chords & Tabs

Version: 1 Type: Bass Tab 0 ratings
1 star 2 stars 3 stars 4 stars 5 stars
comments

We All Fall Down Bass Tab

   
Artist: Against All Authority
Title: We All Fall Down
Performed By: ? (not sure)
Transcribed By: Andrea Okorley
CD: All Fall Down, get it!!!!!!!from Hopeless Records/Zine
Email: descendentsgirl@hotmail.com

s=sixteenth 
""=tied note
Verses:
          G:
          D:--------0--22---------32--
          A:2222---------2222-----0
          E:
Pre- Chorus:
(x3)    G:                                      G:
          D:333-----------555--------       D:333---------
          A:--------2-2-2--------0-0-0      A:--------2-2-2
          E:                                      E:
[ Tab from: http://www.guitartabs.cc/tabs/a/against_all_authority/we_all_fall_down_btab.html ]
          G:
          D:
          A :----777--7--77--"7"\"2"/5
          E:s5-----------------------------------
          " The politics......."
Chorus:                                                  
           G:                                          G:
           D:-------------------3-3-3-2-2-0      
D:-------------------0-0-0-44-0
           A:2--2-2-2--2--------------------       
A:2--2-2-2--2-------------------
           E:                                           E:
           G:
           D:
           
A:2--2-2-2--2-------------0-0-0-2-2-5--5-5-5-5-5-5----2--2---0
           

E:--------------------2-2-2--------------------------------------0------------
~repeat CHORUS, except this time do G:
                     in the 2nd time around     D:
                                                             
A:0--0--0--4-0
                                                             E:
JUST REPEAT ALL OF THAT,   Then at the End: (x7) "the kind of solo part"
G:                                    G:
D:----------0-2-------------32    D:---------0-2------------3--2------
A:02222----------2222----5  A:02222---------2222------5--2
E:---------------02-------------   
E:----------------02--------------------
:

ps. it's fine if all you little posers wanna copy my style w/ the s and 
the "" and all that. just shows you that i got skills

Comments