Afterhours - Non Per Sempre Chords & Tabs

 

Non Per Sempre Chords & Tabs

Afterhours Chords & Tabs

Version: 1 Type: Tab 0 ratings
1 star 2 stars 3 stars 4 stars 5 stars
comments

Non Per Sempre Tab

   
Afterhours
"Non è Per Sempre"



ok... 
this is a song from the Afterhours album called "Non è Per Sempre" (1999)
This is one of the most slow ballad from them...
Afterhours are probably the most important italian band 
of history (that's my opinion) and they are a band that would beat every other rock
band on earth if they were born in America!
But they're born in Italy, and Manuel Agnelli is one of 
the greatest musician and poet right now in music...
This song is most acoustic, and I hope my tab will be good...
If you can, rate this and watch my other tabs!
thanx a lot
  

intro: 
strings arranged for guitar
e|-------------|			|--8-7-8-7----|
B|--1-0-1-0----|			|----------8--|
G|----------0--|    or if you prefer:	|-------------|
D|-------------|			|-------------|
A|-------------|			|-------------|
E|-------------|			|-------------|



guitar 1    
	    G		  Em7		Csus9
e|-------------.-------------.-------------|
B|--1-0-1-0----.--1-0-1-0----.--1-0-1-0----|
G|----------0--.----------0--.----------0--|
D|-------------.-------------.-------------|
A|-------------.-------------.-------------|
E|-------------.-------------.-------------|

guitar 2 *armonics

e|-----------------------------------------------------------|
B|----------------------------------7*-----------------------|
G|----------------7*------------7*------5*-----7*------------|
D|-------------7*------------7*-------------7*----7*---------|
A|-----------------------------------------------------------|
E|-----------------------------------------------------------|


verse:
[ Tab from: http://www.guitartabs.cc/tabs/a/afterhours/non_per_sempre_tab.html ]
	        G		   Em		     C    C/D9
Dici che i tuoi fiori si sono rovinati, non hai abilità
		 G			   Em		    C  C/D9
questa nazione è brutta, ti fa sentire asciutta senza volontà
	       G          Em            C    C/D9
e gioca a fare Dio manipolando il tuo DNA
		  G		      Em               C   C/D9
così se vuoi cambiare invece resti uguale per l'eternità


chorus:

    G   Am7  Bm7  C9
ma non c'è nie..nte 
     G   Am7  Bm7 C9
che sia per  sempre
     G		   Am7      Bm7      C9
perciò se è da un po' che stai così male
	   G		Am7         Bm7		    C9
il tuo diploma in fallimento è una laurea per reagire
Am7		 Dsus4
    puoi finger bene 
Am7                 D
     ma so che hai fame


repeat verse:

tutto è efficacia e razionalità, niente può stupire
e non è certo il tempo quello che ti invecchia e ti fa morire
ma tu rifiuti di ascoltare ogni segnale che ti può cambiare
perchè ti fa paura quello che succederà se poi ti senti uguale


repeat chorus:

ma non c'è niente che sia per sempre
perciò se è da un po' che stai così male
il tuo diploma in fallimento è una laurea per reagire

sai finger bene ma so che hai fame


repeat chorus chords:

non è niente, non è per sempre
è troppo ormai che stai così male
il tuo diploma in fallimento è una laurea per reagire

G    Em   C         G Em   C
  non è niente, non è per sempre

repat (G - Em - C) till the end... on G



problems, or just wanted to say something?
Erickd@katamail.com
bye-...
eNRICO
Comments