Afroman - Crazy Rap Chords & Tabs

 

Crazy Rap Chords & Tabs

Afroman Chords & Tabs

Version: 2 Type: Bass Tab 0 ratings
1 star 2 stars 3 stars 4 stars 5 stars
comments

Crazy Rap Bass Tab

Song: Colt 45 (actual title "Crazy Rap")
Artist: Afroman
Album: Good Times
Tabbed by: PERLBERG (feedme444@hotmail.com)

Bassline (Variation 1)
G|-----------------------------|
D|-------------------5h7-7-5h7-|
A|-----------5-7---7-----------|
E|-5---7-8---------------------|

Bassline (Variation 2)
G|-----------------------------|
D|-----------------------------|
A|-----------5-7---7-7p5h7-5---|
E|-5---7-8-------------------8-|
[ Tab from: http://www.guitartabs.cc/tabs/a/afroman/crazy_rap_btab_ver_2.html ]
Bassline (Variation 3)
G|-----------------------------|
D|-----------------------------|
A|----------5-7---7--7-7p5-----|
E|-5---7-8-----------------8-7-|

Bassline (Variation 4)
G|----------------------5-5----|
D|------------------5h7-----7--|
A|----------5-7---7------------|
E|-5---7-8---------------------|

Variations 1 & 3 are the main variations in the chorus and verses.
Listen to the song for the exact timing and variation sequence,
(but who cares really).  Email me for rap bass tab requests, because
no one'll probably answer your request at the BTA Army (I've tried).
-PERLBERG
Comments