Afi - Yurf Rendemein Chords & Tabs

 

Yurf Rendemein Chords & Tabs

Afi Chords & Tabs

Version: 1 Type: Bass Tab 0 ratings
1 star 2 stars 3 stars 4 stars 5 stars
comments

Yurf Rendemein Bass Tab

*intro
G|-----------------------------|-----------------------------|
D|-----------------------------|-----------------------------|
A|-333333-666666--------444444-|-333333-666666--------p44444-|
E|---------------666666--------|---------------666666--------|
[ Tab from: http://www.guitartabs.cc/tabs/a/afi/yurf_rendemein_btab.html ]
G|-------------------------------------------------|----------------------------------------|
D|----------13----13-13-15-16-15-13----13----------|----------------------------------------|
A|-15-13-15----15-------------------15----15-13-15-|-15-13-------13-11-------11-9-------9-9-|
E|-------------------------------------------------|-------15-14-------13-12------11-10-----|
*Verse                                        (1st and 3rd)   (2nd and 4th) time
G|-------------------------------------------|---------------|---------------|
D|-------------------------------------------|---------------|---------------|
A|-333333-333333-----------------------------|---------------|-666666-666666-|
E|---------------444444-444444-666666-666666-|-444444-444444-|---------------|
*Chorus
 |--------------(x2)---------------------------------------|
G|---(3x)-------|------------------------------------------|
D|--------6-----|------------------------------------------|
A|-333333---6>8-|-111111-333333-|-111111-333333-111111-3---|
E|--------------|------------------------------------------|

*Verse
*Chorus
                                                                            (1st)     (2nd)
G|->5->5-->5->5-->5->5-55-3---3---------|-------------------------------|---------------------------|
D|--------------------------5---5-3-----|-------------------------------|---------------------------|
A|----------------------------------6-3-|-p33333333---------------------|-----------|-666666666666--|
E|--------------------------------------|-----------p44444444-p66666666-|-p44444444-----------------|

*Ending
 |------(x8)-------------|
A|-333333-999999-|-3-3---|
Comments