Afi - Your Name Here Chords & Tabs

 

Your Name Here Chords & Tabs

Afi Chords & Tabs

Version: 2 Type: Tab 0 ratings
1 star 2 stars 3 stars 4 stars 5 stars
comments

Your Name Here Tab

   
-------------------------------------------------------------------------------
			     Your name here -AFI
-------------------------------------------------------------------------------
Tabbed by: Shayne
Email: stevilishes@hotmail.com
Album: Answer that and stay fashionable
Tuning:

| /  slide up					
| \  slide down
| h  hammer-on
| p  pull-off
| ~  vibrato
| +  harmonic
| x  Mute note


	Intro
e|-----------------------------|------*let ring*-------------------|
B|-----------------------------|-----------------------------------|
G|--14~~~~~~~~~~~~~------------|--------------10~----------12~-----|
D|-----------------------------|---------7~---10-----10~---12------|
A|-----------------------------|---------7----8------10----10------|
E|-----------------------------|---------5------------8------------|

e|-------------------------------------------------------------------|
B|-------------------------------------------------------------------|
G|------------------------------------10-9-7------10-9-7-------------|
D|--7--7-7-7-7-7---7--7-7-7-7-7--------------10----------10----------|
A|-------------------------------------------------------------------|
E|-------------------------------------------------------------------|

e|------------------------------------------------------------7-8-7----|
B|----------------------------------------------8--8-8-8-8-8-----------|
G|---------------------------------------------------------------------|
D|--10--10-10-10-10-10---10--10-10-10-10-10----------------------------|
A|---------------------------------------------------------------------|
E|---------------------------------------------------------------------|

e|----------------------------------------------13-12-10------13-12-10-----|
B|-10--10-10-10-10-10---10--10-10-10-10-10---------------13------------13--|
G|-------------------------------------------------------------------------|
D|-------------------------------------------------------------------------|
A|-------------------------------------------------------------------------|
E|-------------------------------------------------------------------------|

e|------------------------------------------10--10-10-10-10-10----8--7--5---|
B|-13--13-13-13-13-13---13--13-13-13-13-13----------------------------------|
G|--------------------------------------------------------------------------|
D|--------------------------------------------------------------------------|
A|--------------------------------------------------------------------------|
E|--------------------------------------------------------------------------|


       Verse x2
e|-------------------------------------------------------------------------|
B|-------------------------------------------------------------------------|
G|-------------------------------10--10-10-10-10-10---10--10-10-10-10-10---|
D|-7--7-7-7-7-7---7--7-7-7-7-7---10--10-10-10-10-10---10--10-10-10-10-10---|
A|-7--7-7-7-7-7---7--7-7-7-7-7----8---8--8--8--8--8----8---8--8-8--8--8---|
E|-5--5-5-5-5-5---5--5-5-5-5-5---------------------------------------------|

e|----------------------------------------------------------|
B|----------------------------------------------------------|
D|-10--10-10-10-10-10---10--10-10-10-10-10------------------|
A|-10--10-10-10-10-10---10--10-10-10-10-10------------------|
E|--8---8--8--8--8--8----8---8--8--8--8--8------------------|

e|------------------------------------------------------------|
B|------------------------------------------------------------|
G|-12--12-12-12-12-12----12--12-12-12-12-12-------------------|
D|-12--12-12-12-12-12----12--12-12-12-12-12-------------------|
A|-10--10-10-10-10-10----10--10-10-10-10-10-------------------|
E|------------------------------------------------------------|
[ Tab from: http://www.guitartabs.cc/tabs/a/afi/your_name_here_tab_ver_2.html ]
e|------------------------------------------------------------------------|
B|------------------------------------------------------------------------|
G|-------------------------------10--10-10-10-10-10----10--10-10-10-10-10-|
D|-7--7-7-7-7-7---7--7-7-7-7-7---10--10-10-10-10-10----10--10-10-10-10-10-|
A|-7--7-7-7-7-7---7--7-7-7-7-7----8---8--8--8--8--8-----8---8--8--8--8--8-|
E|-5--5-5-5-5-5---5--5-5-5-5-5--------------------------------------------|

e|------------------------------------------------------------|
B|------------------------------------------------------------|
G|------------------------------------------------------------|
D|-10--10-10-10-10-10----10--10-10-10-10-10-------------------|
A|-10--10-10-10-10-10----10--10-10-10-10-10-------------------|
E|--8---8--8--8--8--8-----8---8--8--8--8--8-------------------|

e|---------------------------|
B|---------------------------|
G|-7--7-7-7-7-7----------2---|
D|-7--7-7-7-7-7----5-5-4-2---|
A|-5--5-5-5-5-5----5-5-4-0---|
E|-----------------3-3-2-----|

Chorus x2
e|-------------------------------------------------------------------------|
B|-------------------------------------------------------------------------|
G|---------------------------------10--10-10-10-10-10---10--10-10-10-10-10-|
D|-7--7-7-7-7-7---7--7-7-7-7-7-----10--10-10-10-10-10---10-10-10-10-10-10-|
A|-7--7-7-7-7-7---7--7-7-7-7-7------8---8--8--8--8--8----8---8--8--8-8--8-|
E|-5--5-5-5-5-5---5--5-5-5-5-5---------------------------------------------|

e|--------------------------------------------------------------------------|
B|--------------------------------------------------------------------------|
G|12-12-12-12-12-12--12-12-12-12-12-12--13-13-13-13-13-13-14-14-14-14-14-14-|
D|12-12-12-12-12-12--12-12-12-12-12-12--13-13-13-13-13-13-14-14-14-14-14-14-|
A|10-10-10-10-10-10--10-10-10-10-10-11--11-11-11-11-11-12-12-12-12-12-12-12-|
E|--------------------------------------------------------------------------|

Breakdown
e|---------------------------------------------------------------|
B|---------------------------------------------------------------|
G|-----10~----------12~------10---------7--7-7-7-7-7--------2----|
D|-7~--10----10~----12--7-7--10---10----7--7-7-7-7-7--5-5-4-2----|
A|-7----8----10-----10--7-7---8---10----5--5-5-5-5-5--5-5-4-0----|
E|-5----------8---------5-5--------8------------------3-3-2------|

Outro
e|--------------------------------------------------------------------------|
B|--------------------------------------------------------------------------|
G|-------------------------------10--10-10-10-10-10---10--10-10-10-10-10----|
D|-7--7-7-7-7-7--7--7-7-7-7-7----10--10-10-10-10-10---10--10-10-10-10-10----|
A|-7--7-7-7-7-7--7--7-7-7-7-7-----8---8--8--8--8--8----8---8--8--8--8--8----|
E|-5--5-5-5-5-5--5--5-5-5-5-5-----------------------------------------------|

e|-------------------------------------------|
B|-------------------------------------------|
G|-------------------------------------------|
D|10--10-10-10-10-10---10--10-10-10-10-10----|
A|10--10-10-10-10-10---10--10-10-10-10-10----|
E|-8---8--8--8--8--8----8---8--8--8--8--8----|

e|-------------------------------------------------|
B|-------------------------------------------------|
G|-------------------------------------------------|
D|--12--12-12-12-12-12---12--12-12-12-12-12--------|
A|--12--12-12-12-12-12---12--12-12-12-12-12--------|
E|--10--10-10-10-10-10---10--10-10-10-10-10--------|

e|--------------------------------------------------------------------------|
B|--------------------------------------------------------------------------|
G|-------------------------------10--10-10-10-10-10---10--10-10-10-10-10----|
D|-7--7-7-7-7-7--7--7-7-7-7-7----10--10-10-10-10-10---10--10-10-10-10-10----|
A|-7--7-7-7-7-7--7--7-7-7-7-7-----8---8--8--8--8--8----8---8--8--8--8--8----|
E|-5--5-5-5-5-5--5--5-5-5-5-5-----------------------------------------------|

e|-------------------------------------------|
B|-------------------------------------------|
G|-------------------------------------------|
D|10--10-10-10-10-10---10--10-10-10-10-10----|
A|10--10-10-10-10-10---10--10-10-10-10-10----|
E|-8---8--8--8--8--8----8---8--8--8--8--8----|



e|-------------------------------------------|
B|-------------------------------------------|
G|--7--7-7-7-7-7---------2------7--7--7------|
D|--7--7-7-7-7-7---5-5-4-2------7--7--7------|
A|--5--5-5-5-5-5---5-5-4-0------5--5--5------|
E|-----------------3-3-2---------------------|


Song Order
Verse x2
Chorus x2
Verse x2
Chorus x2
Breakdown
Outro



==============================================================
Comments