Afi - Your Name Here Chords & Tabs

 

Your Name Here Chords & Tabs

Afi Chords & Tabs

Version: 4 Type: Bass Tab 0 ratings
1 star 2 stars 3 stars 4 stars 5 stars
comments

Your Name Here Bass Tab

this is absolutly correct cuz it is strieght from afi's basist hunter.

(intro)x4

|----------------------------------------------------4-5-4-----|
|---------------3-3333-3-3333-2---------------5-5555-----------|
|-0-0000-0-0000-----------------3-3333-3-3333------------------|
|--------------------------------------------------------------|
[ Tab from: http://www.guitartabs.cc/tabs/a/afi/your_name_here_btab_ver_4.html ]
|--------------------------------------------------------------|
|---------------3-2-0---3-2-3-5--------------------------------|
|-0-0000-0-0000-------3---------3-3333-3-3333-5-5555-3-2-------|
|--------------------------------------------------------------|

for questions, comments, or corrections (even though this intro is correct) plz
IM me at "Pntballa guy24".  also if u would like the rest of the song i know it and can
show u i was just to lazy to do it on this tab.
Comments