Afi - Who Said You Could Touch Me Anyway Chords & Tabs

 

Who Said You Could Touch Me Anyway Chords & Tabs

Afi Chords & Tabs

Version: 1 Type: Tab 0 ratings
1 star 2 stars 3 stars 4 stars 5 stars
comments

Who Said You Could Touch Me Anyway Tab

#----------------------------------PLEASE NOTE---------------------------------#
#This file is the author's own work and represents their interpretation of the-#
#song. You may only use this file for private study, scholarship, or research.-#
#------------------------------------------------------------------------------#

AFI - Who Said You Could Touch Me Anyways
Submitted By: Sqweeky
EMail: Blindside831@aol.com
tabbed by ryanleeper96@hotmail.com

INTRO / VERSE
e-|----------------------------------------------------------------------
B-|----------------------------------------------------------------------
G-|----9-9-9-7--9-9-9-7--9-9-9-7--5-5-5-5--------------------------------
D-|----9-9-9-7--9-9-9-7--9-9-9-7--5-5-5-5--------------------------------
A-|----7-7-7-5--7-7-7-5--7-7-7-5--3-3-3-3--------------------------------
E-|----------------------------------------------------------------------
[ Tab from: http://www.guitartabs.cc/tabs/a/afi/who_said_you_could_touch_me_anyway_tab.html ]
CHORUS
e-|----------------------------------------------------------------------
B-|----------------------------------------------------------------------
G-|----9-9-9-9----------------------12--11-------------------------------
D-|----9-9-9-9--9-9-9-9--10101010---12--11-------------------------------
A-|----7-7-7-7--9-9-9-9--10101010---10--9--------------------------------
E-|-------------7-7-7-7---8-8-8-8----------------------------------------

e-|----------------------------------------------------------------------
B-|----------------------------------------------------------------------
G-|----9-9-9-9----------------------7-7-7-7 <--  In the last chorus------
D-|----9-9-9-9--9-9-9-9--10101010---7-7-7-7------this D isn't played ----
A-|----7-7-7-7--9-9-9-9--10101010---5-5-5-5-----davey yells 2,3,4,5,6,7,8
E-|-------------7-7-7-7---8-8-8-8---------------instead------------------

OUTRO
e-|----------------------------------------------------------------------
B-|----------------------------------------------------------------------
G-|----9-9-7-9-----------------------------------------------------------
D-|----9-9-7-9-----------------------------------------------------------
A-|----7-7-5-7-----------------------------------------------------------
E-|----------------------------------------------------------------------
Comments