Afi - Two Of A Kind Chords & Tabs

 

Two Of A Kind Chords & Tabs

Afi Chords & Tabs

Version: 2 Type: Tab 0 ratings
1 star 2 stars 3 stars 4 stars 5 stars
comments

Two Of A Kind Tab

   
Artist / Band - AFI
Album - Answer That And Stay Fashionable
Track Number - 01
Track Name - Two Of A Kind
Tabber - Keith Fusco
Email Address - koro_guitarist@hotmail.com
Web Page - http://www.keithfusco.com

Legend:
p - Pull Off
pm - Palm Muted
* - Let Ring
\ - Slide Down Neck
/ - Slide Up neck

Standard Tuning - E,A,D,G,B,E

Intro

E |---------------------------------------------------------------------------|
B |---------------------------------------------------------------------------|
G |-7-7--7--7-7-7-7--7--------------------10-10--10--10-10-10-10--10----------|
D |-7-7--7--7-7-7-7--7-5-5--5--5-5-5-5--5-10-10--10--10-10-10-10--10-8-8-8--8-|
A |-5-5--5--5-5-5-5--5-5-5--5--5-5-5-5--5--8--8---8---8--8--8--8---8-8-8-8--8-|
E |--------------------3-3--3--3-3-3-3--3----------------------------6-6-6--6-|
   |pm-|   |---pm--|  |pm-|   |---pm--|   |--pm-|   |-----pm----|   |-pm--|
E |-----------------|
B |-----------------|
G |-----------------|
D |-10-10-10-10--10-|
A |-10-10-10-10--10-|
E |--8--8--8--8---8-|
   |----pm-----|

E |------------------------------------------------------------------|
B |------------------------------------------------------------------|
G |-7-7--7--7-7-7-7--7--------------------10-10--10--10-10-10-10--10-|
D |-7-7--7--7-7-7-7--7-5-5--5--5-5-5-5--5-10-10--10--10-10-10-10--10-|
A |-5-5--5--5-5-5-5--5-5-5--5--5-5-5-5--5--8--8---8---8--8--8--8---8-|
E |--------------------3-3--3--3-3-3-3--3----------------------------|
   |pm-|   |---pm--|  |pm-|   |---pm--|   |--pm-|   |-----pm----|

E |------------------|
B |------------------|
G |-8-8-8-8--7-7-7-7-|
D |-8-8-8-8--7-7-7-7-|
A |-6-6-6-6--5-5-5-5-|
E |------------------|

Verse

E |---------------------------------------------------------------------|
B |---------------------------------------------------------------------|
G |-7-7-7-7---------7-7-7-7---------7-7-7-7-----------------10-10-10-10-|
D |-7-7-7-7-5-5-5-5-7-7-7-7-7-7-8-8-7-7-7-7-5-5-5-5-8-8-8-8-10-10-10-10-|
A |-5-5-5-5-5-5-5-5-5-5-5-5-7-7-8-8-5-5-5-5-5-5-5-5-8-8-8-8--8--8--8--8-|
E |---------3-3-3-3---------5-5-6-6---------3-3-3-3-6-6-6-6-------------|

E |---------------------------------------------------------------------|
B |---------------------------------------------------------------------|
G |-7-7-7-7---------7-7-7-7---------7-7-7-7-----------------10-10-10-10-|
D |-7-7-7-7-5-5-5-5-7-7-7-7-7-7-8-8-7-7-7-7-5-5-5-5-8-8-8-8-10-10-10-10-|
A |-5-5-5-5-5-5-5-5-5-5-5-5-7-7-8-8-5-5-5-5-5-5-5-5-8-8-8-8--8--8--8--8-|
E |---------3-3-3-3---------5-5-6-6---------3-3-3-3-6-6-6-6-------------|

Chorus

E |-----------------------------------------------------------|
B |-----------------------------------------------------------|
G |-7-7-7-7-7-7-7-7-------------------10-10-10-10-10-10-10-10-|
D |-7-7-7-7-7-7-7-7--5-5-5-5-5-5-5-5--10-10-10-10-10-10-10-10-|
A |-5-5-5-5-5-5-5-5--5-5-5-5-5-5-5-5---8--8--8--8--8--8--8--8-|
E |------------------3-3-3-3-3-3-3-3--------------------------|

E |-------------------------|
B |-------------------------|
G |-------------------------|
D |-8-8-8-8--10-10-10-10-10-|
A |-8-8-8-8--10-10-10-10-10-|
E |-6-6-6-6---8--8--8--8--8-|

E |-----------------------------------------------------------|
B |-----------------------------------------------------------|
G |-7-7-7-7-7-7-7-7-------------------10-10-10-10-10-10-10-10-|
D |-7-7-7-7-7-7-7-7--5-5-5-5-5-5-5-5--10-10-10-10-10-10-10-10-|
A |-5-5-5-5-5-5-5-5--5-5-5-5-5-5-5-5---8--8--8--8--8--8--8--8-|
E |------------------3-3-3-3-3-3-3-3--------------------------|

E |------------------|
B |------------------|
G |-8-8-8-8--7-7-7-7-|
D |-8-8-8-8--7-7-7-7-|
A |-6-6-6-6--5-5-5-5-|
E |------------------|

Verse

E |---------------------------------------------------------------------|
B |---------------------------------------------------------------------|
G |-7-7-7-7---------7-7-7-7---------7-7-7-7-----------------10-10-10-10-|
D |-7-7-7-7-5-5-5-5-7-7-7-7-7-7-8-8-7-7-7-7-5-5-5-5-8-8-8-8-10-10-10-10-|
A |-5-5-5-5-5-5-5-5-5-5-5-5-7-7-8-8-5-5-5-5-5-5-5-5-8-8-8-8--8--8--8--8-|
E |---------3-3-3-3---------5-5-6-6---------3-3-3-3-6-6-6-6-------------|
[ Tab from: http://www.guitartabs.cc/tabs/a/afi/two_of_a_kind_tab_ver_2.html ]
E |---------------------------------------------------------------------|
B |---------------------------------------------------------------------|
G |-7-7-7-7---------7-7-7-7---------7-7-7-7-----------------10-10-10-10-|
D |-7-7-7-7-5-5-5-5-7-7-7-7-7-7-8-8-7-7-7-7-5-5-5-5-8-8-8-8-10-10-10-10-|
A |-5-5-5-5-5-5-5-5-5-5-5-5-7-7-8-8-5-5-5-5-5-5-5-5-8-8-8-8--8--8--8--8-|
E |---------3-3-3-3---------5-5-6-6---------3-3-3-3-6-6-6-6-------------|

Chorus

E |-----------------------------------------------------------|
B |-----------------------------------------------------------|
G |-7-7-7-7-7-7-7-7-------------------10-10-10-10-10-10-10-10-|
D |-7-7-7-7-7-7-7-7--5-5-5-5-5-5-5-5--10-10-10-10-10-10-10-10-|
A |-5-5-5-5-5-5-5-5--5-5-5-5-5-5-5-5---8--8--8--8--8--8--8--8-|
E |------------------3-3-3-3-3-3-3-3--------------------------|

E |-------------------------|
B |-------------------------|
G |-------------------------|
D |-8-8-8-8--10-10-10-10-10-|
A |-8-8-8-8--10-10-10-10-10-|
E |-6-6-6-6---8--8--8--8--8-|

E |-----------------------------------------------------------|
B |-----------------------------------------------------------|
G |-7-7-7-7-7-7-7-7-------------------10-10-10-10-10-10-10-10-|
D |-7-7-7-7-7-7-7-7--5-5-5-5-5-5-5-5--10-10-10-10-10-10-10-10-|
A |-5-5-5-5-5-5-5-5--5-5-5-5-5-5-5-5---8--8--8--8--8--8--8--8-|
E |------------------3-3-3-3-3-3-3-3--------------------------|

E |------------------|
B |------------------|
G |-8-8-8-8--7-7-7-7-|
D |-8-8-8-8--7-7-7-7-|
A |-6-6-6-6--5-5-5-5-|
E |------------------|

Bridge

E |---------------------------------------------------------------------------|
B |---------------------------------------------------------------------------|
G |-7-7--7--7-7-7-7--7--------------------10-10--10-10-10-10-10--10-----------|
D |-7-7--7--7-7-7-7--7-5-5--5--5-5-5-5--5-10-10--10-10-10-10-10--10-8*-8-/-10-|
A |-5-5--5--5-5-5-5--5-5-5--5--5-5-5-5--5--8--8---8--8--8--8--8---8-8*-8-/-10-|
E |--------------------3-3--3--3-3-3-3--3---------------------------6*-6-/--8-|
   |pm-|   |---pm--|  |pm-|   |---pm--|   |--pm-|  |-----pm----|
E |---------------------------------------------------------------------------|
B |---------------------------------------------------------------------------|
G |-7-7--7--7-7-7-7--7--------------------10-10--10-10-10-10-10--10-8-8-8-7-7-|
D |-7-7--7--7-7-7-7--7-5-5--5--5-5-5-5--5-10-10--10-10-10-10-10--10-8-8-8-7-7-|
A |-5-5--5--5-5-5-5--5-5-5--5--5-5-5-5--5--8--8---8--8--8--8--8---8-6-6-6-5-5-|
E |--------------------3-3--3--3-3-3-3--3-------------------------------------|
   |pm-|   |---pm--|  |pm-|   |---pm--|   |--pm-|  |-----pm----|

Chorus

E |-----------------------------------------------------------|
B |-----------------------------------------------------------|
G |-7-7-7-7-7-7-7-7-------------------10-10-10-10-10-10-10-10-|
D |-7-7-7-7-7-7-7-7--5-5-5-5-5-5-5-5--10-10-10-10-10-10-10-10-|
A |-5-5-5-5-5-5-5-5--5-5-5-5-5-5-5-5---8--8--8--8--8--8--8--8-|
E |------------------3-3-3-3-3-3-3-3--------------------------|

E |-------------------------|
B |-------------------------|
G |-------------------------|
D |-8-8-8-8--10-10-10-10-10-|
A |-8-8-8-8--10-10-10-10-10-|
E |-6-6-6-6---8--8--8--8--8-|

E |-----------------------------------------------------------|
B |-----------------------------------------------------------|
G |-7-7-7-7-7-7-7-7-------------------10-10-10-10-10-10-10-10-|
D |-7-7-7-7-7-7-7-7--5-5-5-5-5-5-5-5--10-10-10-10-10-10-10-10-|
A |-5-5-5-5-5-5-5-5--5-5-5-5-5-5-5-5---8--8--8--8--8--8--8--8-|
E |------------------3-3-3-3-3-3-3-3--------------------------|

E |------------------|
B |------------------|
G |-8-8-8-8--7-7-7-7-|
D |-8-8-8-8--7-7-7-7-|
A |-6-6-6-6--5-5-5-5-|
E |------------------|

Outro

E |-----------------------------------------------------------|
B |-----------------------------------------------------------|
G |-7-7-7-7-7-7-7-7-------------------10-10-10-10-10-10-10-10-|
D |-7-7-7-7-7-7-7-7--5-5-5-5-5-5-5-5--10-10-10-10-10-10-10-10-|
A |-5-5-5-5-5-5-5-5--5-5-5-5-5-5-5-5---8--8--8--8--8--8--8--8-|
E |------------------3-3-3-3-3-3-3-3--------------------------|

E |-------------------|
B |-------------------|
G |-12-12--12-12-/-14-|
D |--x--x---x--x-/--x-|
A |-10-10--10-10-/-12-|
E |-------------------|

E |------------------------------------------------------------------|
B |------------------------------------------------------------------|
G |-7-7-7-7-7-7-7-7-------------------10-10-10-10-10-10-10-10-/-12*p-|
D |-7-7-7-7-7-7-7-7--5-5-5-5-5-5-5-5--10-10-10-10-10-10-10-10-/-12*p-|
A |-5-5-5-5-5-5-5-5--5-5-5-5-5-5-5-5---8--8--8--8--8--8--8--8-/-10*p-|
E |------------------3-3-3-3-3-3-3-3---------------------------------|
Comments