Afi - Total Immortal Chords & Tabs

 

Total Immortal Chords & Tabs

Afi Chords & Tabs

Version: 4 Type: Tab 0 ratings
1 star 2 stars 3 stars 4 stars 5 stars
comments

Total Immortal Tab

   
TOTALIMMORTAL-By A.F.I.-tabbed by keegan c.

102 beats per second

INTRO
e|-----------------------------------------------------------------------|
B|-----------------------------------------------------------------------|
G|-------9-9-9-------7777-------9-9-9------------------------------------|
D|--2-2--9-9-9-5-5-5-7777-2-2---9-9-9-5-xxxxxxx--------------------------|
A|--2-2--7-7-7-5-5-5-5555-2-2---7-7-7-5-xxxxxxx--------------------------|
E|--0-0-0------3-3-3------0-0-0-------3-xxxxxxx--------------------------|

e|-----------------------------------------------------------------------|
B|-----------------------------------------------------------------------|
G|-------9-9-9-------7777--12--14--9-------------------------------------|
D|-2-2---9-9-9-5-5-5-7777--12--14--9-9-9-9-9-----------------------------|
A|-2-2---7-7-7-5-5-5-5555--10--12--7-7-7-7-7-----------------------------|
E|-0-0-0-------3-3-3-----------------------------------------------------|

VERSES:
e|------------------|----------------------------------------------------|
B|------------------|----------------------------------------------------|
G|------------------|----------------------------------------------------|
D|--wait 12 seconds-|--7-8-5---555555------------------------------------|
A|------------------|--7-8-5---555555------------------------------------|
E|------------------|--5-6-3---333333------------------------------------|
 
                                   x3        
P.M.----------------------------------------------|  
e|----------------------------------|------------------------------------|
B|-101010121212-8-8-8101010-7-7-8-8-|------------------------------------|
G|--9-9-9-9-9-9-9-9-9-9-9-9-9-9-9-9-|----------------10------------------|
D|----------------------------------|----------------10------------------|
A|----------------------------------|-9999999999999---8------------------|
E|----------------------------------|-7777777777777----------------------|

PRE CHORUS:                     x2
e|-------------------------------|
B|-------------------------------|
G|-------------------------------|
D|-------------------------------|
A|-2-----2-----2-----2-----2---2-|
E|-0-0-0-0-0-0-0-0-0-0-0-0-0-0-0-|
  P.M.--------------------------|

  P.M.--------------------|
e|------------------------------------------------------------------------|
B|------------------------------------------------------------------------|
G|------------------------------------------------------------------------|
D|-------------------------22222------------------------------------------|
A|-2-----2-----2-----2-----22222------------------------------------------|
E|-0-0-0-0-0-0-0-0-0-0-0-0-00000------------------------------------------|
[ Tab from: http://www.guitartabs.cc/tabs/a/afi/total_immortal_tab_ver_4.html ]
CHORUS:
e|------------------------------------|-----------------------------------|
B|------------------------------------|-----------------------------------|
G|-------------------------77777777777|999777999--------------------------|
D|-22222222222-55555555555-77777777777|999777999-5555555------------------|
A|-22222222222-55555555555-55555555555|777555777-5555555------------------|
E|-00000000000-33333333333------------|----------3333333------------------|
   ^                ^
Do this whole row above then just     |----------------------------|
thw first half then do this part.     |----------------------------|
                                      |-9--------------------------|
                                      |-9---2--222222--------------|
                                      |-7---2--222222--------------|
                                      |--0--0--000000--------------|

INTERLUDE:
102 beats| 122 beats per second 
e|-------|----------------------------------------------------------------|
B|-------|----------------------------------------------------------------|
G|-------|-99----------------9999----------99----------------9977---------|
D|-2-----|-99-dotted 8th rest9999-4th rest-99dotted 8th rest-9977-4th rest|
A|-2-----|-77----------------7777----------77----------------7755---------|
E|-0-----|----------------------------------------------------------------|
   ^Hold for 24 seconds

e|------------------------------------------------------------------------|
B|-8----------------------------------------------------------------------|
G|-99-----------------99991010--------------------------------------------|
D|-99-dotted 8th rest-99991010-2------------------------------------------|
A|-77-----------------7777-8-8-2------------------------------------------|
E|-----------------------------0------------------------------------------|
                               ^hold for 6 seconds

OUT-CHORUS:
102 beats per second
e|------------------------------------|-----------------------------------|
B|------------------------------------|-----------------------------------|
G|-------------------------77777777777|999777999--------------------------|
D|-22222222222-55555555555-77777777777|999777999-5555555------------------|
A|-22222222222-55555555555-55555555555|777555777-5555555------------------|
E|-00000000000-33333333333------------|----------3333333------------------|

e|------------------------------------------------------------------------|
B|------------------------------------------------------------------------|
G|-------------------------77777777777-(7)-9------------------------------|
D|-22222222222-55555555555-77777777777-(7)-9------2--2-2--(2)-------------|
A|-22222222222-55555555555-55555555555-(5)-7------2--2-2--(2)-------------|
E|-00000000000-33333333333--------------------0--(0)-0-0--(0)-------------|
                                                           ^hold for 5 sec.
                                                               and fade out
IN ORDER:

Intro
Verse
pre chorus
chorus
intro
verse
pre chorus
chorus
interlude
out chorus

ENJOY!

Tabbed By: Keegan C.
Comments