Afi - Total Immortal Chords & Tabs

 

Total Immortal Chords & Tabs

Afi Chords & Tabs

Version: 3 Type: Tab 0 ratings
1 star 2 stars 3 stars 4 stars 5 stars
comments

Total Immortal Tab

total immortal - AFI
song is tuned EADGBe
listen to the song for rythyms

intro
E---------------------------------------
B---------------------------------------
G----9---7-----9---7x-----9---7-------9-
D--2-9-5-7---2-9-5-5x---2-9-5-7---5-7-9-
A--2-7-5-5---2-7-5-5x---2-7-5-5---5-7-7-
E--0---3-----0---3------0---3-----3-5---

verse
E---------5x7x3x-5x2x3x play 3 times----
B---------------------------------------
G---------------------------------------
D--7-8-5------------------------------9-
A--7-8-5------------------------------9-
E--5-6-3------------------------------7-
[ Tab from: http://www.guitartabs.cc/tabs/a/afi/total_immortal_tab_ver_3.html ]
bridge
E------------
B------------
G--9x--------
D--9x--------
A--7x--------
E--0x--------

chorus
E--------------------------------------------------
B--------------------------------------------------
G--------7--9-7-9-11-12--------7--9-7-9-11-12-14---
D--2--5--7--9-7-9-11-12--2--5--7--9-7-9-11-12-14---
A--2--5--5--7-5-7-9--10--2--5--5--7-5-7-9--10-12---
E--0--3------------------0--3----------------------

breakdown
E-----------------------------
B-let ring--------------------
G--9--------9-99--9-97--9-----
D--9--------9-99--9-97--9-2---
A--7--------7-77--7-75--7-2---
E-------------------------0---
Comments