Afi - Total Immortal Chords & Tabs

 

Total Immortal Chords & Tabs

Afi Chords & Tabs

Version: 2 Type: Bass Tab 0 ratings
1 star 2 stars 3 stars 4 stars 5 stars
comments

Total Immortal Bass Tab

   
yea this song is a lot easier then it sounds...

intro
g----------------------------7-9-7---------------------9-
d----------------------5-7-9-------9---------------5-7---
a----777----555----777------------------777----555-------
e-00-----33-----00-------------------00-----33-----------

verse
g------------------------------------------------------------
d------------------------------------------------------------
a------7-555------777-5-7-----5555------7-555----------------
e-0000-------3333---------333------0000-------3333-5-6-3-333-

g--------------------------------------------------------------------
d--------------------------------------------------------------------
a------7-555------777-5-7-----5555------7-555----------------------8-
e-0000-------3333---------333------0000-------3333-777777777777777---
[ Tab from: http://www.guitartabs.cc/tabs/a/afi/total_immortal_btab_ver_2.html ]
pre chorus
g---
d---
a--- just hit that note a lot of times
e-0-

chorus
g----------------------------------------------------
d----------------------------------------------------
a---7---7-5-7-------------4-5---5-4-5-7-5-7-10-10-10-
e-0-----------2-3---3-2-3----------------------------

g-------------------------------------------------
d-------------------------------------2-4-5-7-7-7-
a---7---7-5-7-------------4-5---5-4-5-------------
e-0-----------2-3---3-2-3-------------------------

bridge
g--------------    -------------------------------------------------------
d--------------    ----------------------------------------5h7-77777777---
a-5h7-77777777- x4 -5h7-77777777--------------5h7-77777777--------------7-
e--------------    --------------5h7-77777777-----------------------------

that's it... if u have any questions, email me at blinkskater2@juno.com
Comments