Afi - This Time Imperfect Chords & Tabs

 

This Time Imperfect Chords & Tabs

Afi Chords & Tabs

Version: 3 Type: Tab 0 ratings
1 star 2 stars 3 stars 4 stars 5 stars
comments

This Time Imperfect Tab

   
E|--------|--------|------------------|
B|--------|--------|------------------|
G|----0---|--0-0---|----0---0-----0---|
D|--5--5-5|-7-7-7-7|--2--2-2-4-----4-4|
A|-5-5--5-|5-----5-|-2-2--2---------2-|
E|0-------|--------|0-----------------|
    Gb5      Db5            Eb5

(repeat above a few times then play the first part (Gb5) one more time before playing this..)
[ Tab from: http://www.guitartabs.cc/tabs/a/afi/this_time_imperfect_tab_ver_3.html ]
E|----7--|7---|--------|
B|-----8-|77--|--------|
G|--9---9|9-9-|----0---|
D|-9-9---|---9|--7--7-7|
A|7------|----|-7-7--7-|
E|-------|----|5-------|
    Em            Ab        ..Db   ..Eb

Chorus:

E|------|----------|----|----|----|----|----|
B|------|----------|----|----|----|----|----|
G|------|----------|7777|----|----|----|----|
D|222222|---5555555|7777|5555|2222|5555|7777|
A|222222|5555555555|5555|5555|2222|3333|5555|
E|000000|2223333333|----|3333|0000|----|----|
    Em   G7(5) G5    D5   G5   E5   C5   D5

Repeat ^

E|--3-|--5-|---2|
B|----|----|--0-|
G|-4-4|-2-2|-4--|
D|2---|4---|5---|
A|----|----|----|
E|----|----|----|


That's all so far
Comments