Afi - This Celluloid Dream Chords & Tabs

 

This Celluloid Dream Chords & Tabs

Afi Chords & Tabs

Version: 1 Type: Tab 0 ratings
1 star 2 stars 3 stars 4 stars 5 stars
comments

This Celluloid Dream Tab

AFI - This  Celluloid Dream
By:Andrew Mcshan(Guitarguyx182@aol.com)

Intro 
e|----------------------------------------------------------------------------| 
B|-2-2--1--2-2-1-2-2-1-2-2-1--------------------------------------------------|
G|-3-3--1--3-3-1-3-3-1-3-3-1---3-6---6---3-11-10-3-6/8/5-3-11-10-13-11-10-6---|
D|---------4-4-----------------3-6-4-6-6-x-x--x--x-x/x/x-x-x--x--x--x--x--x---|
A|-----------------------------1-4-4-4-6-1-9--8--1-4/6/3-1-9--8--11-9--8--4---|
E|---------------------------------2---4--------------------------------------|

Verse
e|------------------------------------------------------------------| 
B|------------------------------------------------------------------|
G|---------------6--6--6-6-----------------6-6-6-6------------------| 
D|-8--8--8--8--8-6--6--6-6---4--4--4--4--4-6-6-6-6------------------|
A|-8--8--8--8--8-4--4--4-4---4--4--4--4--4-4-4-4-4------------------|
E|-6--6--6--6--6-------------2--2--2--2--2--------------------------|
Palm Mute................................

e|--------------|
B|-2------------|
G|---3-3-3-3-3--|
D|--------------|
A|--------------|
E|--------------|
[ Tab from: http://www.guitartabs.cc/tabs/a/afi/this_celluloid_dream_tab.html ]
Pre chorus 
e|-------------------------------|
B|--------2-2-2------------------|
G|-3-3-3-3------1-1-1--3-3-3-3---|
D|-------------------------------|
A|-------------------------------|
E|-------------------------------|


Chorus
e|--------------------------------|
B|--------------------------------| 
G|-3-3------6-6-------8-5-6-------|
D|-3-3--4-4-6-6-6-4-4-x-x-x-------|
A|-1-1--4-4-4-4-6-4-4-6-3-4-------|
E|------2-2-----4-2-2-------------| 

Bridge
e|--------------------------------------------------------------------|  
B|------2-2h3p2-1-1--1/2---2---1--1/2-----1---1/2--3---1---2-1-4-1----|   
G|-3--3-------------3----3---3---1----3-----3-----3--3---3------------|  
D|-x------------------------------------3-----------------------------|  
A|-1------------------------------------------------------------------|  
E|--------------------------------------------------------------------|  

e|-------------------------------------------------------------| 
B|-------------------------------------------------------------|
G|-----11-11-----8-8-----11-11---------------------------------| 
D|-8-8-11-11-6-6-8-8-8-8-11-11-6-6-8-9-8-8-6---8-6-3-3-3-------| 
A|-8-8-9--9--6-6-6-6-8-8-9--9--6-6-8-9-8-8-6---8-6-3-3-3-------|
E|-6-6-------4-4-----6-6-------4-4-6-7-6-6-4---6-4-1-1-1-------| 

for the outro its the chorus chords and this....

e|---------------------------------|
B|---------------------------------|
G|-1-1-1-11-10-6-6-6-8-6-5-5-5-5---|
D|-x-x-x-x--x--x-x-x-x-x-x-x-x-x---|
A|-3-3-3-9--8--4-4-4-6-4-3-3-3-3---|
E|---------------------------------|
Comments