Afi - The New Patron Saints And Angels Chords & Tabs

 

The New Patron Saints And Angels Chords & Tabs

Afi Chords & Tabs

Version: 1 Type: Bass Tab 0 ratings
1 star 2 stars 3 stars 4 stars 5 stars
comments

The New Patron Saints And Angels Bass Tab

listen to song for rythem. this is correct. this is how hunter played at
the concert i went to.
|-----------------------------------------|
|-----------------------------------------|
|--9---5-----9-------7-----9----5---------|
|-------5---------5---7--------------7----|

[ Tab from: http://www.guitartabs.cc/tabs/a/afi/the_new_patron_saints_and_angels_btab.html ]
|-----------------------------------------|
|-----------------------------------------|
|---7----53---5---------------------------|
|--------------5---78--7------------------|


|----------------------------------------------|
|----------------------------------------------|
|--9----7---5---7-5---and----9----7--5--[75--75|
Comments