Afi - The Nephilim Chords & Tabs

 

The Nephilim Chords & Tabs

Afi Chords & Tabs

Version: 2 Type: Tab 0 ratings
1 star 2 stars 3 stars 4 stars 5 stars
comments

The Nephilim Tab

   
The time may be off, but the chords correspond to the words.
() back up vocals
*  pick slide
It starts with a bass riff then some guitar distortion then this:

Intro

   E      G  A   G  A
e|-0----|-3--5---3--5-|
B|-0----|-3--5---3--5-|
G|-1----|-4--6---4--6-|
D|-2----|-5--7---5--7-|
A|-2----|-5--7---5--7-|
E|-0----|-3--5---3--5-|

Verse

   G     A       Bm  E
e|-3-----5-------7---000|
B|-3-----5-------7---000|
G|-4-----6-------7---111|
D|-5-----7-------9---222|
A|-5-----7-------9---222|
E|-3-----5-------7---000|
   Swing through sad-ness,

   G     A       Bm  E
e|-3-----5-------7---000|
B|-3-----5-------7---000|
G|-4-----6-------7---111|
D|-5-----7-------9---222|
A|-5-----7-------9---222|
E|-3-----5-------7---000|
   Tears of      joy,

   G     A       Bm  E
e|-3-----5-------7---000|
B|-3-----5-------7---000|
G|-4-----6-------7---111|
D|-5-----7-------9---222|
A|-5-----7-------9---222|
E|-3-----5-------7---000|
   Curse the     sun-light,


   G5          F#6
e|------------------------|
B|------------------------|
G|------------------------|
D|------------------------|
A|-5-5--5--5---5-----5---5|
E|-3-3--3--3---2-----2---2|
   Arsenic for girls and boys,


   G     A       Bm  E
e|-3-----5-------7---000|
B|-3-----5-------7---000|
G|-4-----6-------7---111|
D|-5-----7-------9---222|
A|-5-----7-------9---222|
E|-3-----5-------7---000|
   Drink the     mad-ness,


   G     A       Bm  E
e|-3-----5-------7---000|
B|-3-----5-------7---000|
G|-4-----6-------7---111|
D|-5-----7-------9---222|
A|-5-----7-------9---222|
E|-3-----5-------7---000|
   Smoke so      coy,


   G     A
e|-3-----5-------7---000|
B|-3-----5-------7---000|
G|-4-----6-------7---111|
D|-5-----7-------9---222|
A|-5-----7-------9---222|
E|-3-----5-------7---000|
   Smile in  -   jected,


   F#6        G5
e|--------------------------|
B|--------------------------|
G|--------------------------|
D|--------------------------|
A|-5-5---5--5-5----5--5-----|
E|-2-2---2--2-3----3--3-----|
   Serum of a will destroyed,


   F#5        G5
e|---------------------|
B|---------------------|
G|---------------------|
D|---------------------|
A|-5-5---5--5-5----5--5|
E|-2-2---2--2-3----3--3|
   Serum of a will,

   F#5        G5   A
e|-----------------5---|
B|-----------------5---|
G|-----------------6---|
D|-----------------7-*-|
A|-5-5---5--5-5----7-*-|
E|-2-2---2--2-3----5---|
   Serum of a will destroyed,

Chorus

   G5          F#6
e|------------------------------------|
B|------------------------------------|
G|------------------------------------|
D|------------------------------------|
A|-55555555----55555555555555555555555|
E|-33333333----22222222222222222222222|
   The seasons change change without me,

[ Tab from: http://www.guitartabs.cc/tabs/a/afi/the_nephilim_tab_ver_2.html ]
   E
e|-00---0----00---0------------------|
B|-00---0----00---0------------------|
G|-11---1----11---1------------------|
D|-22---2----22---2------------------|
A|-22---2----22---2------------------|
E|-00---0----00---0------------------|
  (I remain) in shadows growing wings,


   G5           F#6
e|-------------------------------------|
B|-------------------------------------|
G|-------------------------------------|
D|-------------------------------------|
A|-55555555----555555555555555555555555|
E|-33333333----022222222222222222222222|
   The spirit's song still surrounds me,


   E
e|-00---0------00---0-----------------|
B|-00---0------00---0-----------------|
G|-11---1------11---1-----------------|
D|-22---2------22---2-----------------|
A|-22---2------22---2-----------------|
E|-00---0------00---0-----------------|
  (In refrain) in shadows growing wings,

Interlude

e|-3-0-0-3-0-7-10--3-0-3-0-7-10|\
B|-----------------------------| \
G|-----------------------------|  \
D|-----------------------------|   x2
A|-----------------------------|  /
E|-----------------------------| /
                                /
Then it's the verse again and its the exact same. After that the same chorus.
Then the same interlude. Then this bridge:


   E
e|-0----------------------------------|
B|-0----------------------------------|
G|-1----------------------------------|
D|-2----------------------------------|
A|-2----------------------------------|
E|-0----------------------------------|
   Like an angel with two broken wings,


   Bm A  G  
e|-7--5--3--|
B|-7--5--3--|
G|-7--6--4--|
D|-9--7--5--|
A|-9--7--5--|
E|-7--5--3--|
  (Whoa)


   G
e|-3----------|
B|-3----------|
G|-4----------|
D|-5----------|
A|-5----------|
E|-3----------|
   Like a devil meant for better things,


   A  F# G
e|-5--2--3--|
B|-5--2--3--|
G|-6--3--4--|
D|-7--4--5--|
A|-7--4--5--|
E|-5--2--3--|
  (Whoa)


   E
e|-0------------|
B|-0------------|
G|-1------------|
D|-2------------|
A|-2------------|
E|-0------------|
   Like an angel with two broken wings,


          F#               G
e|--------22---22-------2--3--|
B|--------22---22-------2--3--|
G|--------33---33-------3--4--|
D|--------44---44-------4--5--|
A|--------44---44-------4--5--|
E|--------22---22-------2--3--|
   I will find my place on high,


Then its the intro part again. Then the chorus then this:


   G5      F#6       E
e|-------------------0-0-0-0-0-0-0-0-0-0-0-0-0-0-0-0|
B|-------------------0-0-0-0-0-0-0-0-0-0-0-0-0-0-0-0|
G|-------------------1-1-1-1-1-1-1-1-1-1-1-1-1-1-1-1|
D|-------------------2-2-2-2-2-2-2-2-2-2-2-2-2-2-2-2|
A|-55-555--5-55-555--2-2-2-2-2-2-2-2-2-2-2-2-2-2-2-2|
E|-33-333--2-22-222--0-0-0-0-0-0-0-0-0-0-0-0-0-0-0-0|
                   pm...............



e|-3-0-0-3-0-7-10--3-0-3-0-7-10--3-0-0-3-0-7-10--3-0-3-0|
B|------------------------------------------------------|
G|------------------------------------------------------|
D|------------------------------------------------------|
A|------------------------------------------------------|
E|------------------------------------------------------|


   F# D  E
e|-2--5--0-|
B|-4--6--0-|
G|-4--7--1-|
D|-4--7--2-|
A|-2--5--2-|
E|-2--5--0-|

tabbed by bawbe
Comments