Afi - The Last Kiss Chords & Tabs

 

The Last Kiss Chords & Tabs

Afi Chords & Tabs

Version: 1 Type: Bass Tab 0 ratings
1 star 2 stars 3 stars 4 stars 5 stars
comments

The Last Kiss Bass Tab

   
Intro
G|--------------|
D|--------------|
A|-8---8---8-10-|
E|---8---8------|

Verse
G|------------------------|---------------------|------------|
D|------------------------|---------------------|------------|
A|-5555---------------5-3-|-5555-----------3333-|-5555-------|
E|------66-88-1111-33-----|-----66-88-1111------|------66-88-|

Prechorus fragment
G|-------------------------|-------------------|
D|-------------------------|-------------------|
A|---------------8-10-88---|-------------------|
E|-66666666-8888---------8-|-66666666-88888888-|

-verse

Prechorus a
G|-------------------------|----------------------|
D|-------------------------|----------------------|
A|---------------8-10-88---|------------------8-7-|
E|-66666666-8888---------8-|-66666666-8-8-8-8-----|

Chorus
G|-------------------------------------|
D|---------------------------------2h3-|
A|-55555555-23333333-1-0---------------|
E|-----------------------1-0-1-1-33----|

-verse
[ Tab from: http://www.guitartabs.cc/tabs/a/afi/the_last_kiss_btab.html ]
Prechorus b
G|-------------------------|----------------------|
D|-------------------------|----------------------|
A|---------------8-10-88---|----------------------|
E|-66666666-8888---------8-|-66666666-8-8-8-8-3-5-|

-chorus

Before Bridge A|-3~-|

Bridge                                        (don't do those 8's the second time)
G|----------------|-----------------------------|------------------------------|
D|----------------|-----------------------------|------------------------------|
A|-00000000-11111-|-Q-55-2-3333-----------8-3/5-|-55-2-33333-0-1111/88888888-Q-|
E|----------------|-------------3/555-666-------|------------------------------|

-prechorus a
-chorus

Palm Muted Chorus (only once)
G|--------------------------------------|
D|---------------2h3----------------2h3-|
A|-5555-7h8-3333-----1-0----------------|
E|-----------------------1-0-1-1-33-----|

-chorus (once)

Ending                             (skip this the second time)
G|-------------------------------|----------------------------|
D|-------------------------------|----------------------------|
A|-Q-55555555555555-8---8---8-10-|-55555555555555-8---8-----Q-|
E|--------------------8---8------|------------------8---8-8-6-|

G|------------------------------------5h7-|
D|------------------------------------5---|
A|-55555555555555-8---8----8h10-----------|
E|------------------8---88------6~--------|
Comments