Afi - The Hanging Garden Chords & Tabs

 

The Hanging Garden Chords & Tabs

Afi Chords & Tabs

Version: 2 Type: Bass Tab 0 ratings
1 star 2 stars 3 stars 4 stars 5 stars
comments

The Hanging Garden Bass Tab

   
Band:AFI 
Song: The Hanging Garden (a cover by the cure)
Album: A Fire Inside EP
tuning: Standard
Tabber: Nelson
other: I am confident in the Intro and Verse, and am however not 100% sure about the
chorus. Also this is not the AFI version of the song, it is tabbed for the original
version by The Cure. questions, comments, or corrections AOL Instant Message me at:
NewBreed 4lyfe

Intro
(let it ring)
G|--------|
D|--------|
A|-5------|
E|--------|

G|---------------------------------------------------|
D|-----------------------------------------5-5-5-5\7-|
A|-5--5-5-5-5-5--5-5-5-5-5--5/3--3-3-3-3-3-----------|
E|---------------------------------------------------|

G|---------------------------------------------------|
D|-----------------------------------------5-5-5-5\7-|
A|-5--5-5-5-5-5--5-5-5-5-5--5/3--3-3-3-3-3-----------|
E|---------------------------------------------------|


G|---------------------------------------------------|
D|-----------------------------------------5-5-5-5\7-|
A|-5--5-5-5-5-5--5-5-5-5-5--5/3--3-3-3-3-3-----------|
E|---------------------------------------------------|

G|---------------------------------------------------|
D|-----------------------------------------5-5-5-5\7-|
A|-5--5-5-5-5-5--5-5-5-5-5--5/3--3-3-3-3-3-----------|
E|---------------------------------------------------|

verse
G|---------------------------------------------------|
D|-----------------------------------------5-5-5-5\7-|
A|-5--5-5-5-5-5--5-5-5-5-5--5/3--3-3-3-3-3-----------|
E|---------------------------------------------------|
[ Tab from: http://www.guitartabs.cc/tabs/a/afi/the_hanging_garden_btab_ver_2.html ]
G|------------------------------------------|
D|-------------------------3--3-3-3-3-3h5-5-|
A|-5--5-5-5-5-5--5-5-5-5-5------------------|
E|------------------------------------------|

G|---------------------------------------------------|
D|-----------------------------------------5-5-5-5\7-|
A|-5--5-5-5-5-5--5-5-5-5-5--5/3--3-3-3-3-3-----------|
E|---------------------------------------------------|

G|-----------------------------------------------|
D|-------------------------3--3-3-3-3-3--3-3h5-5-|
A|-5--5-5-5-5-5--5-5-5-5-5-----------------------|
E|-----------------------------------------------|

chorus
G|------------------------------------------------------|
D|------------------------------------------------------|
A|-5--5-5-5-5-5--5-5-5-5-5-5/3--3-3-3-3-3--3-3-3-3-3--3-|
E|------------------------------------------------------|

G|----------------------------------------------------|
D|-5--5-5-5-5-5--5-5-5-5-5----------------------------|
A|-------------------------5--5-5-5-5-5--5-5-5-5-5--5-|
E|----------------------------------------------------|

G|-----------------------------------------------------|
D|-----------------------------------------------------|
A|-5--5-5-5-5-5--5-5-5-5-5-/3--3-3-3-3-3--3-3-3-3-3--3-|
E|-----------------------------------------------------|

G|--------------------------------------------------|
D|-5--5-5-5-5-5--5-5-5-5-5--3--3-3-3-3-3--3-3-3-3-3-|
A|--------------------------------------------------|
E|--------------------------------------------------|

| /  slide up
| \  slide down
| h  hammer-on
| p  pull-off
| ~  vibrato
| +  harmonic
| x  Mute note
=============================================================================
Comments