Afi - Silver And Cold Chords & Tabs

 

Silver And Cold Chords & Tabs

Afi Chords & Tabs

Version: 6 Type: Tab 0 ratings
1 star 2 stars 3 stars 4 stars 5 stars
comments

Silver And Cold Tab

Band: AFI (A Fire Inside)
Album: Sing The Sorrow
Song: Silver And Cold (Track 4)
Note: This song (and every song on the album, except "The Leaving Song")
is tuned a half-step flat.
Tabbed By: LedZep420 (dm_420@hotmail.com)


Intro (Piano arranged for guitar):
E-----2-----2-|-----2-----5-|-----2-----0-|-5-3-2-0--2--3----|
B---3-----3---|---3-----3---|---3-----3---|------------------|
G-4-----4-----|-4-----4-----|-4-----6-----|------------------|
D-------------|-------------|-------------|------------------|
A-2-----------|-0-----2-----|-2-----0-----|------------------|
E-------3-----|-------------|-------------|-3-----0----------|

(Electric guitar with distortion)
E-------7------------5-----|-------3------------5-----|
B-------7------------5-----|-------3------------5-----|
G-------7------------6-----|-------4------------6-----|
D-9-9-9-9-9-9--7-7-7-7-7-7-|-5-5-5-5-5-5--7-7-7-7-7-7-|
A-9-9-9-9-9-9--7-7-7-7-7-7-|-5-5-5-5-5-5--7-7-7-7-7-7-|
E-7-7-7-7-7-7--5-5-5-5-5-5-|-3-3-3-3-3-3--5-5-5-5-5-5-|

E--------------------------------------|------------------0----|
B-12-12-12-12-12-12--14-14-14-14-14-14-|-15-15-15-15------0----|
G-X--X--X--X--X--X---X--X--X--X--X--X--|-X--X--X--X-------9----|
D-9--9--9--9--9--9---11-11-11-11-11-11-|-12-12-12-12------9----|
A--------------------------------------|-------------0----7----|
E--------------------------------------|---------------0--0----|

1st Verse:
E-------------------------|---------------------0---|
B-------------------------|-----------------------0-|
G-------------------------|-------------------------|
D-----0-----0-----0-----0-|-----0-----0-----0-------|
A---5-----5-----4-----5---|---5-----4-----4---------|
E-7-----3-----5-----7-----|-7-----5-----3-----0-----|

E-------------------------|-----------------------|-------------------------|
B-------------------------|-------------------0---|-------------------------|
G-------------------------|-------------------0---|-------------------------|
D-----0-----0-----0-----0-|-----0-----0-----0-2---|-------------------------|
A---5-----5-----4-----5---|---5-----4-----4-------|-9-9-0-5-5-0-4-4-0-5-5-0-|
E-7-----3-----5-----7-----|-7-----5-----3---------|-7-7-0-3-3-0-5-5-0-7-7-0-|

E-------------------------|-------------------------|-------------------0---|
B-------------------------|-------------------------|---------------0---0---|
G-------------------------|-------------------------|---------0-------0-0---|
D-------------------------|-------------------------|---0-------0-------2---|
A-9-9-0-7-7-0-3-3-0-2-2-0-|-9-9-0-5-5-0-4-4-0-5-5-0-|-2---2-------0-----2---|
E-7-7-0-5-5-0-3-3-0-0-0-0-|-7-7-0-3-3-0-5-5-0-7-7-0-|-------3-----------0---|

1st Chorus:
E-------3--3-|-2--2--0--0-|-------3--3-|-2--2--------------|-0--0-------|
B-5--5--3--3-|-3--3--0--0-|-5--5--3--3-|-3--3--------------|-0--0--5--5-|
G-5--5--4--4-|-2--2--0--0-|-5--5--4--4-|-2--2--8-8-8-8-8-8-|-0--0--5--5-|
D-5--5--5--5-|-0--0--2--2-|-5--5--5--5-|-0--0--X-X-X-X-X-X-|-2--2--5--5-|
A-3--3--5--5-|-------2--2-|-3--3--5--5-|-------6-6-6-6-6-6-|-2--2--3--3-|
E-------3--3-|-------0--0-|-------3--3-|-------7-7-7-7-7-7-|-0--0-------|

E---------7---------|-7--7-------|-------------------------|----------------|
B-7--7------8-------|-8--8--7--7-|-5-5-5-5-5-5-5-5-5-5-5-5-|-7-7-7-7-7-7-7--|
G-7--7--------9-----|-9--9--7--7-|-5-5-5-5-5-5-5-5-5-5-5-5-|-7-7-7-7-7-7-7--|
D-7--7----------9---|-9--9--7--7-|-5-5-5-5-5-5-5-5-5-5-5-5-|-7-7-7-7-7-7-7--|
A-5--5------------7-|-7--7--5--5-|-3-3-3-3-3-3-3-3-3-3-3-3-|-5-5-5-5-5-5-5--|
E-------0-----------|-0--0-------|-------------------------|----------------|

2nd Verse:
E-------------------------|---------------------0---|
B-------------------------|-----------------------0-|
G-------------------------|-------------------------|
D-----0-----0-----0-----0-|-----0-----0-----0-------|
A---5-----5-----4-----5---|---5-----4-----4---------|
E-7-----3-----5-----7-----|-7-----5-----3-----0-----|

E-------------------------|-------------------<12>|-------------------------|
B-------------------------|-------------------<12>|-------------------------|
G-------------------------|-------------------<12>|-------------------------|
D-----0-----0-----0-----0-|-----0-----0-----0-----|-------------------------|
A---5-----5-----4-----5---|---5-----4-----4-------|-9-9-0-5-5-0-4-4-0-5-5-0-|
E-7-----3-----5-----7-----|-7-----5-----3---------|-7-7-0-3-3-0-5-5-0-7-7-0-|

E-------------------------|-------------------------|-------------------0--|
B-------------------------|-------------------------|-------------------0--|
G-------------------------|-------------------------|-------------------0--|
D-------------------------|-------------------------|-----0-----0-----0-2--|
A-9-9-0-7-7-0-5-5-0-2-2-0-|-9-9-0-5-5-0-4-4-0-5-5-0-|---4-----4-----4---2--|
E-7-7-0-5-5-0-3-3-0-0-0-0-|-7-7-0-3-3-0-5-5-0-7-7-0-|-7-----5-----3-----0--|
[ Tab from: http://www.guitartabs.cc/tabs/a/afi/silver_and_cold_tab_ver_6.html ]
E-7--7-7--3--3-3--5--5-5--7--7-7-|-7--7-7--5--5-5--3--3-3--0--0-0-|
B-7--7-7--3--3-3--5--5-5--7--7-7-|-7--7-7--5--5-5--3--3-3--0--0-0-|
G-7--7-7--4--4-4--6--6-6--7--7-7-|-7--7-7--6--6-6--4--4-4--0--0-0-|
D-9--9-9--5--5-5--7--7-7--9--9-9-|-9--9-9--7--7-7--5--5-5--2--2-2-|
A-9--9-9--5--5-5--7--7-7--9--9-9-|-9--9-9--7--7-7--5--5-5--2--2-2-|
E-7--7-7--3--3-3--5--5-5--7--7-7-|-7--7-7--5--5-5--3--3-3--0--0-0-|

E-7--7-7--3--3-3--5--5-5--7--7-7-|-------------------------------|
B-7--7-7--3--3-3--5--5-5--7--7-7-|---7------5------3-------------|
G-7--7-7--4--4-4--6--6-6--7--7-7-|-----7------6------4--16-16-16-|
D-9--9-9--5--5-5--7--7-7--9--9-9-|----------------------X--X--X--|
A-9--9-9--5--5-5--7--7-7--9--9-9-|----------------------14-14-14-|
E-7--7-7--3--3-3--5--5-5--7--7-7-|-7------5------3------0--0--0--|

E--------------|
B--------------|
G-14-14-14--12-|
D-X--X--X---X--|
A-12-12-12--10-|
E-0--0--0---0--|

2nd Chorus:
E-------3--3-|-2--2--0--0-|-------3--3-|-2--2--------------|
B-5--5--3--3-|-3--3--0--0-|-5--5--3--3-|-3--3--------------|
G-5--5--4--4-|-2--2--0--0-|-5--5--4--4-|-2--2--8-8-8-8-8-8-|
D-5--5--5--5-|-0--0--2--2-|-5--5--5--5-|-0--0--X-X-X-X-X-X-|
A-3--3--5--5-|-------2--2-|-3--3--5--5-|-------6-6-6-6-6-6-|
E-------3--3-|-------0--0-|-------3--3-|-------7-7-7-7-7-7-|

E-0--0-------|---------7---------|-7--7-------|-------0--0-|
B-0--0--5--5-|-7--7------8-------|-8--8--7--7-|-5--5--2--2-|
G-0--0--5--5-|-7--7--------9-----|-9--9--7--7-|-5--5--2--2-|
D-2--2--5--5-|-7--7----------9---|-9--9--7--7-|-5--5--2--2-|
A-2--2--3--3-|-5--5------------7-|-7--7--5--5-|-3--3--0--0-|
E-0--0-------|-------0-----------|-0--0-------|------------|

Interlude:
E-2------------|------------------|----------------|------------------|
B-3------------|------------------|----------------|------------------|
G-4------------|-------0----------|----------------|-------0----------|
D-4------------|---4------4-------|------4---------|---4------4-------|
A-2--------2-0-|-2---2--------2-0-|-2--2-------2-0-|-2---2--------2-0-|
E--------------|------------------|----------------|------------------|

E--------------------------|---------------------0----|
B--------------------------|-----------------------0--|
Go-------------------------|-------------------------o|
Do-----0-----0-----0-----0-|-----0-----0-----0-------o|
A----5-----5-----4-----5---|---5-----4-----4----------|
E--7-----3-----5-----7-----|-7-----5-----3-----0------|

E-------------------------|-------------------------|
B-------------------------|-------------------------|
G-------------------------|-------------------------|
D-----0-----0-----0-----0-|-----0-----0-----0-----0-|
A---5-----5-----4-----5---|---5-----4-----4-----4---|
E-7-----3-----5-----7-----|-7-----5-----3-----5-----|

E--------------------|-----------------------|
B--------------------|-----------------------|
G-----------9---9--9-|-11--14-14-14-14-14-14-|
D-9---9--9--X---X--X-|-X---X--X--X--X--X--X--|
A-X---X--X--7---7--7-|-9---12-12-12-12-12-12-|
E-7---7--7--7---7--7-|-7---------------------|

Ending:
E-------3--3-|-2--2--0--0-|-------3--3-|-2--2--------------|-0--0-------|
B-5--5--3--3-|-3--3--0--0-|-5--5--3--3-|-3--3--------------|-0--0--5--5-|
G-5--5--4--4-|-2--2--0--0-|-5--5--4--4-|-2--2--8-8-8-8-8-8-|-0--0--5--5-|
D-5--5--5--5-|-0--0--2--2-|-5--5--5--5-|-0--0--X-X-X-X-X-X-|-2--2--5--5-|
A-3--3--5--5-|-------2--2-|-3--3--5--5-|-------6-6-6-6-6-6-|-2--2--3--3-|
E-------3--3-|-------0--0-|-------3--3-|-------7-7-7-7-7-7-|-0--0-------|

E---------7---------|-7--7-------|-------------------------|
B-7--7------8-------|-8--8--7--7-|-5-5-5-5-5-5-5-5-5-5-5-5-|
G-7--7--------9-----|-9--9--7--7-|-5-5-5-5-5-5-5-5-5-5-5-5-|
D-7--7----------9---|-9--9--7--7-|-5-5-5-5-5-5-5-5-5-5-5-5-|
A-5--5------------7-|-7--7--5--5-|-3-3-3-3-3-3-3-3-3-3-3-3-|
E-------0-----------|-0--0-------|-------------------------|

E-------------------------|-------3--3-|-2--2--0--0-|-------3--3-|
B-------------------------|-5--5--3--3-|-3--3--0--0-|-5--5--3--3-|
G-------------------------|-5--5--4--4-|-2--2--0--0-|-5--5--4--4-|
D-4-4-4-4-4-4-4-4-4-4-4-4-|-5--5--5--5-|-0--0--2--2-|-5--5--5--5-|
A-2-2-2-2-2-2-2-2-2-2-2-2-|-3--3--5--5-|-------2--2-|-3--3--5--5-|
E-------------------------|-------3--3-|-------0--0-|-------3--3-|

E-2--2--------------|-0--0-------|---------7---------|-7--7-------|
B-3--3--------------|-0--0--5--5-|-7--7------8-------|-8--8--7--7-|
G-2--2--8-8-8-8-8-8-|-0--0--5--5-|-7--7--------9-----|-9--9--7--7-|
D-0--0--X-X-X-X-X-X-|-2--2--5--5-|-7--7----------9---|-9--9--7--7-|
A-------6-6-6-6-6-6-|-2--2--3--3-|-5--5------------7-|-7--7--5--5-|
E-------7-7-7-7-7-7-|-0--0-------|-------0-----------|-0--0-------|

E-------0--0-|-7--7-------|-------------------------|---------------|
B-5--5--0--0-|-8--8--7--7-|-5-5-5-5-5-5-5-5-5-5-5-5-|-7-7-7-7-7-7-7-|
G-5--5--0--0-|-9--9--7--7-|-5-5-5-5-5-5-5-5-5-5-5-5-|-7-7-7-7-7-7-7-|
D-5--5--2--2-|-9--9--7--7-|-5-5-5-5-5-5-5-5-5-5-5-5-|-7-7-7-7-7-7-7-|
A-3--3--2--2-|-7--7--5--5-|-3-3-3-3-3-3-3-3-3-3-3-3-|-5-5-5-5-5-5-5-|
E-------0--0-|-0--0-------|-------------------------|---------------|

Background fill:
(Played behind measures 10-11 and 14-15 of the ending)
E-----------------------------------|-------------------------------|
B-13-13-13--12-12-12-10-10-10-8-8-8-|-10-10-10-12-12-12-5-5-5-5-5-5-|
G-X--X--X---X--X--X--X--X--X--X-X-X-|-X--X--X--X--X--X--X-X-X-X-X-X-|
D-10-10-10--9--9--9--7--7--7--5-5-5-|-7--7--7--9--9--9--2-2-2-2-2-2-|
A-----------------------------------|-------------------------------|
E-----------------------------------|-------------------------------|

And there you have it.
Comments