Afi - Silver And Cold Chords & Tabs

 

Silver And Cold Chords & Tabs

Afi Chords & Tabs

Version: 3 Type: Tab 0 ratings
1 star 2 stars 3 stars 4 stars 5 stars
comments

Silver And Cold Tab

   
---------------------------------------------------------------------
                        SILVER AND COLD - afi    
---------------------------------------------------------------------

Tuning: 1/2 step down (as shown).
Tabbed by: ???


 INTRO (first high bit is piano arranged for guitar)
Eb|----10-14----10-14----10-14----10-17----10-14-9-10-12-17-15-14-12-14-15
Bb|-12-------10----------------10-------12--------------------------------
Gb|-------------------12--------------------------------------------------
Db|-----------------------------------------------------------------------
Ab|-----------------------------------------------------------------------
Eb|-----------------------------------------------------------------------

Eb|------------------------------------------------------------
Bb|------------------------------------------------------------
Gb|------------------------------------------------------------
Db|9-9-9-9-9-9-7-7-7-7-7-7-5-5-5-5-5-5-7-7-7-7-7-7-9-9-9-9-9-9-
Ab|x-x-x-x-x-x-x-x-x-x-x-x-x-x-x-x-x-x-x-x-x-x-x-x-x-x-x-x-x-x-
Eb|7-7-7-7-7-7-5-5-5-5-5-5-3-3-3-3-3-3-5-5-5-5-5-5-7-7-7-7-7-7-

Eb|-------------------------------0--||
Bb|-------------------------------0--||
Gb|-------------------------------0--||
Db|-11111111111-12-12-12-12-12-12-2--||
Ab|-x-x-x-x-x-x-x--x--x--x--x--x--2--||
Eb|-9-9-9-9-9-9-10-10-10-10-10-10-0--||
                                  ^let ring

VERSE (Clean)
Eb|--------------------------------------------0----------------------||
Bb|----------------------------------------------0--------------------||
Gb|-------------------------------------------------------------------||
Db|--4-0---4-0---0-4---0-4---4-0---0-4---0-4--------------------------||
Ab|2-----------0-----2-----2-----0------------------------------------||
Eb|------3-----------------------------3-----0------------------------||

Eb|------------------------------------------0------------------------||
Bb|------------------------------------------0------------------------||
Gb|------------------------------------------0------------------------||
Db|--4-0---0-4---0-4---0-4---4-0---0-4---0-4-2------------------------||
Ab|2-----------0-----2-----2-----0-----------2------------------------||
Eb|------3-----------------------------3-----0------------------------||

Eb|-------------------------------------------------------------------||
Bb|-------------------------------------------------------------------||
Gb|-------------------------------------------------------------------||
Db|-------------------------------------------------------------------||
Ab|-------------------------------------------------------------------||
Eb|7-7-7-3-3-3-5-5-5-7-7-7-7-7-7-5-5-5-3-3-3-0-0-0--------------------||
   |-------------------(P)-----------------|

Eb|------------------------------------------------------------------||
Bb|-----------------------------0------------------------------------||
Gb|---------------------------2--------------------------------------||
Db|-------------------------0--0--2-2-2-2-2-2-2-2-2-2-2-2------------||
Ab|------------------------2-2----2-2-2-2-2-2-2-2-2-2-2-2------------||
Eb|7-7-7-3-3-3-5-5-5-7-7-7--------0-0-0-0-0-0-0-0-0-0-0-0------------||
                                  |--------(P)----------|<--lightly ease up on
                                                   the palm muting each stroke

CHORUS
Eb|--------------------------------------------------------------
Bb|--------------------------------------------------------------
Gb|-5-5-5-5-5-5-------------7-7-7-7-7-7-9-9-9-9-9-9-9-9-9-9-9-9--
Db|-5-5-5-5-5-5-5-5-5-5-5-5-7-7-7-7-7-7-9-9-9-9-9-9-9-9-9-9-9-9--
Ab|-3-3-3-3-3-3-5-5-5-5-5-5-5-5-5-5-5-5-7-7-7-7-7-7-7-7-7-7-7-7--
Eb|-------------3-3-3-3-3-3--------------------------------------

Eb|-------------------------------------------------------------
Bb|-------------------------------------------------------------
Gb|-5-5-5-5-5-5-7-7-7-7-7-7-8-8-8-8-8-8-5-5-5-5-5-5-------------
Db|-5-5-5-5-5-5-7-7-7-7-7-7-x-x-x-x-x-x-5-5-5-5-5-5-5-5-5-5-5-5-
Ab|-3-3-3-3-3-3-5-5-5-5-5-5-6-6-6-6-6-6-3-3-3-3-3-3-5-5-5-5-5-5-
Eb|-------------------------------------------------3-3-3-3-3-3-

Eb|---------------7-----------------------------------------------------||
Bb|----------------8-8--------------------------------------------------||
Gb|-7-7-7-7-7-7-----9-9-9-9-9-9-9-9-7-7-7-7-7-7-5-5-5-5-5-5-5-5-5-5-5-5-||
Db|-7-7-7-7-7-7---------7-7-7-7-7-7-7-7-7-7-7-7-5-5-5-5-5-5-5-5-5-5-5-5-||
Ab|-5-5-5-5-5-5---------7-7-7-7-7-7-5-5-5-5-5-5-3-3-3-3-3-3-3-3-3-3-3-3-||
Eb|-------------0-------------------------------------------------------||

[ Tab from: http://www.guitartabs.cc/tabs/a/afi/silver_and_cold_tab_ver_3.html ]
Eb|-------------------------------------------------------------------||
Bb|-------------------------------------------------------------------||
Gb|-------------------------------------------------------------------||
Db|-7-7-7-7-7-7-7-7-7-7-7-7-------------------------------------------||
Ab|-5-5-5-5-5-5-5-5-5-5-5-5-------------------------------------------||
Eb|-------------------------------------------------------------------||

VERSE (Clean) - before vocals start again
Eb|--------------------------------------------0----------------------||
Bb|----------------------------------------------0--------------------||
Gb|-------------------------------------------------------------------||
Db|--4-0---0-4---0-4---0-4---4-0---0-4---0-4--------------------------||
Ab|2-----------0-----2-----2-----0------------------------------------||
Eb|------3-----------------------------3-----0------------------------||

Eb|------------------------------------------0------------------------||
Bb|------------------------------------------0------------------------||
Gb|------------------------------------------0------------------------||
Db|--4-0---0-4---0-4---0-4---4-0---0-4---0-4-2------------------------||
Ab|2-----------0-----2-----2-----0-----------2------------------------||
Eb|------3-----------------------------3-----0------------------------||

VERSE - after vocals start
Eb|------------------------------------------------------------------||
Bb|------------------------------------------------------------------||
Gb|------------------------------------------------------------------||
Db|------------------------------------------------------------------||
Ab|5-5-5-2-2-2-4-4-4-5-5-5-5-5-5-4-4-4-2-2-2-2-2-2-5-5-5-2-2-2-4-4-4-||
Eb|7-7-7-3-3-3-5-5-5-7-7-7-7-7-7-5-5-5-3-3-3-0-0-0-7-7-7-3-3-3-5-5-5-||
   |------------------------------(P)------------------------------|

Eb|-------------------------------------------------------------------||
Bb|-------------------------------------------------------------------||
Gb|-------------------------------------------------------------------||
Db|-----------------------0-2-2-2-2-2-2-2-2-2-2-2-2-------------------||
Ab|-5-5-5---4-5---4-5---4---2-2-2-2-2-2-2-2-2-2-2-2-------------------||
Eb|-7-7-7-7-----3-----0-----0-0-0-0-0-0-0-0-0-0-0-0-------------------||
    |-P-|
Eb|------------------------------------------------------------2---------0-|
Bb|-------------------------------------------------------------3-2------0-|
Gb|-4-4-------2-2--4-4--4-4--2-2-----------4-4------2-2--4-4-------2-4-0-0-|
Db|-4-4--5-5--2-2--4-4--4-4--2-2-5-5--2-2--4-4-5-5--2-2--4-4-------------2-|
Ab|-2-2--5-5--0-0--2-2--2-2--0-0-5-5--2-2--2-2-5-5--0-0--2-2-2---0-------2-|
Eb|------3-3---------------------3-3--0-0------3-3------------------3----0-|

repeat chorus.

BRIDGE						(vocals start)
Eb|----------------------------------------------------------------------||
Bb|----------------------------------------------------------------------||
Gb|----------------------------------------------------------------------||
Db|----------5-4------------4-----------5-4--------4-0---0-4---0-4---0-4-||
Ab|2-2-2/4-5------2-2-2/4-5---2-2-2/4-5------2-2-2-----------0-----2-----||
Eb|----------------------------------------------------3-----------------||



Eb|---------------------0----------------------||
Bb|-----------------------0--------------------||
Gb|--------------------------------------------||
Db|---4-0---0-4---0-4--------------------------||
Ab|-2-----0------------------------------------||
Eb|-------------3-----0------------------------||

Eb|--------------------------------------------0---||
Bb|----------------------------------------------0-||
Gb|------------------------------------------------||
Db|--4-0---0-4---0-4---0-4---4-0---0-4---0-4-------||
Ab|2-----------0-----2-----2-----0-----------------||
Eb|------3-----------------------------3-----0-----||

Eb|--------------------------------------------0---||
Bb|----------------------------------------------0-||
Gb|------------------------------------------------||
Db|--4-0---0-4---0-4---0-4---4-0---0-4---0-4-------||
Ab|2-----------0-----2-----2-----0-----------------||
Eb|------3-----------------------------3-----0-----||

Eb|-------------------------------------------------------------------||
Bb|-------------------------------------------------------------------||
Gb|-------------------------------------------------4-4-4-4-4-4-4-4-4-||
Db|--4-0---0-4---0-4---0-4---4-0---0-4---0-4---0-4--4-4-4-4-4-4-4-4-4-||
Ab|2-----------0-----2-----2-----0-----------0------2-2-2-2-2-2-2-2-2-||
Eb|------3-----------------------------3------------------------------||
						    |-------P-------|

Eb|-------------------------------||
Bb|-------------------------------||
Gb|-4-4-4-4-4-4-4-4-4-4-4-4-4-4---||
Db|-4-4-4-4-4-4-4-4-4-4-4-4-4-4---||
Ab|-2-2-2-2-2-2-2-2-2-2-2-2-2-2---||
Eb|-------------------------------||
    |--------P------- - -  - 
			gradually ease out of palm muting 
                                             on last 5 strums

repeat chorus
Comments