Afi - Sacrifice Theory Chords & Tabs

 

Sacrifice Theory Chords & Tabs

Afi Chords & Tabs

Version: 1 Type: Tab 0 ratings
1 star 2 stars 3 stars 4 stars 5 stars
comments

Sacrifice Theory Tab

   
Tabbed by culo11@netzero.com

     AFI 
Sacrifice Theory

(/ pick slide)
(* palm mute)

INTRO (mess around with picking notes with barre chords):
e|-----7----|
B|-----7----|
G|-----7----|
D|--9-----9-|
A|--9-----9-|
E|--7-----7-|

VERSE  (On the third verse you palm mute)
e|----------------------------------------------------|
B|----------------------------------------------------|
G|-----------------------------------7----------------|
D|--9--5--7-----9--5--7-----9--5--7--7-7-----9--5--7--|
A|--9--5--7-----9--5--7-----9--5--7--5-7-----9--5--7--|
E|--7--3--5-----7--3--5-----7--3--5----5-----7--3--5--|

CHORUS
e|---------------------------|
B|---------------------------|
G|--7-----------7------------|
D|--7--7--9--5--7--7--9--5---|
A|--5--7--9--5--5--7--9--5---|
E|-----5--7--3-----5--7--3---|
[ Tab from: http://www.guitartabs.cc/tabs/a/afi/sacrifice_theory_tab.html ]
BREAKDOWN 1 (listen to song for palm muting)
e|----------------------------------------------------------------|------------|
B|----------------------------------------------------------------|------------|
G|---------------7*-------------------7----------7----------------|------------|
D|--9*-9--9*--5*-7*-7*----9*-9--5*-5--7-7-/--9-5-7-7---9*-9--5*-5-|-5-4-2--5-7-|
A|--9*-9--9*--5*-5*-7*----9*-9--5*-5--5-7-/--9-5-5-7---9*-9--5*-5-|-5-4-2--5-7-|
E|--7*-7--7*--3*----5*----7*-7--3*-3----5-/--7-3---5---7*-7--3*-3-|-3-2-0--3-5-|

ORDER:
INTRO
VERSE x2
CHORUS x2
VERSE
VERSE (pm)
VERSE
CHORUS x2
BREAK
CHORUS x2 [Note 1]
VERSE [Note 2]

{Note 1} I know there's a little solo here, but I could not figure out what it
          was.  Playing the normal chorus sounds good though.
{Note 2} You should play the final verse like this: BGADBGADBGADB
         For people who don't know chords, here is the tab:
	
	   B  G  A  D
        e|-------------|
	B|-------------|
	G|----------7--|
	D|-9--5--7--7--|
	A|-9--5--7--5--|
	E|-7--3--5-----|

And that's about it. Any questions send them to me.
Comments