Afi - Sacrifice Theory Chords & Tabs

 

Sacrifice Theory Chords & Tabs

Afi Chords & Tabs

Version: 1 Type: Bass Tab 0 ratings
1 star 2 stars 3 stars 4 stars 5 stars
comments

Sacrifice Theory Bass Tab

SACRIFICE THEORY 
By: Afi
tabbed by Thod-Leach

(as usual, most everything is 16th notes) normal tuning

intro (these are all 16th notes):

|-------------------------------------------------------------------|
|--------------------------7-7-8-8-9-9-7-7-----7-7------------------|
|--------------5-6-7-7-8-9-----------------9-9-----9-9-8-8-7-7-5-5--|
|--7-7-5-5-7-7------------------------------------------------------|

|-------------------------------------------------------------------|
|--------------------------7-7-8-8-9-9-7-7-----7-7------------------|
|--------------5-6-7-7-8-9-----------------9-9-----9-9-8-8-7-7-5-5--|
|--7-7-5-5-7-7------------------------------------------------------|

|--------------------------------------------9-9-10-10-11-11-10-10-9-9-7-7--|
|--------------------------7-7-8-8-9-9-12-12--------------------------------|
|--------------5-6-7-7-8-9--------------------------------------------------|
|--7-7-5-5-7-7--------------------------------------------------------------|

|--------------7-7--------------------------------------------------|
|--9-9-7-7-9-9-----9-9-8-8-7-7-----------------7-7------------------|
|------------------------------9-9-7-7-8-8-9-9-----9-9-8-8-7-7-5-5--|
|-------------------------------------------------------------------|


verse:

|--------------------------------------------------|
|--------------------------------------------------|
|--------------------------------------------------|
|--7--7--7-7-7--3-3-5-5-5--7--7--7-7-7--3-3-5-5-5--|

|-----------------------------------------------------------|
|-----------------------------------------------------------|
|------------------------------5-5-5-5-5-5------------------|
|--7--7--7-7-7--3-3-5-5-5--3-3-------------5-5-4-4-5-5-6-6--|

|--------------------------------------------------|
|--------------------------------------------------|
|--------------------------------------------------|
|--7--7--7-7-7--3-3-5-5-5--7--7--7-7-7--3-3-5-5-5--|

|-----------------------------------------------------------|
|--------------------------5-5-4-4---------7-7-5-5-4-4------|
|----------------------------------7-7-5-5-------------7-7--|
|--7--7--7-7-7--3-3-5-5-5-----------------------------------|



chorus:

|-------------------------------------------------------------------|
|-------------------------------------------------------------------|
|--5--5-5-5-5-7--------------------------7-7-8-8-9-9-8-8-7-7--------|
|----------------5--5-5-5-5-9--7-7-10-10---------------------10-10--|

|-------------------------------------------------------------------|
|--------------------------------------------------5-5-4-4----------|
|----------2-2-2-2-3-3-3-3-5-5-5-5-----4-4-7-7-4-4---------7-7-4-4--|
|--3-3-3-3-------------------------5-5------------------------------|

|-------------------------------------------------------------------|
|-------------------------------------------------------------------|
|--5--5-5-5-5----------------------------7-7-8-8-9-9-8-8-7-7--------|
|-------------3--5--5-5-5-5-6--7-7-10-10---------------------10-10--|

|-------------------------------------------------------------------|
|----------5-5-5-5-4-4----------------------------------------------|
|----------------------7-7-5-5-4-4----------------------------------|
|--3-3-3-3-------------------------5-5-5-5-5-5-0-0-2-2-2-2-2-2-5-5--|

"go" part:
[ Tab from: http://www.guitartabs.cc/tabs/a/afi/sacrifice_theory_btab.html ]
|------------------------------------------------------|
|--------------------------------------4-4-5-5-7--7-7--|
|------------------------------5-5-7-7-----------------|
|--7--7--7-7-7--3-3-5-5-5--7-7-------------------------|

|--------------------------9-9-10-10-11-11-12-12-11-11-9-9----------------------------|
|--9-9-9-9-12-12-9-9-12-12---------------------------------12-12-9-9-10-10-11-11-7-7--|
|-------------------------------------------------------------------------------------|
|-------------------------------------------------------------------------------------|


verse 2:

|--------------------------------------------------|
|--9--9--9-9-9--5-5-7-7-7--9--9--9-9-9--5-5-7-7-7--|
|--------------------------------------------------|
|--------------------------------------------------|

|-----------------------------------------------------------|
|--9--9--9-9-9--5-5-7-7-7--5-5-4-4-5-5-6-6-7-7-6-6-7-7-8-8--|
|-----------------------------------------------------------|
|-----------------------------------------------------------|

|-----11----------------------11-------------------|
|--9--9--9-9-9--5-5-7-7-7--9--9--9-9-9--5-5-7-7-7--|
|--------------------------------------------------|
|--------------------------------------------------|

|-----11----------------------------------------------------|
|--9--9--9-9-9--5-5-7-7-7--5-5-4-4---------7-7-5-5-4-4------|
|----------------------------------7-7-5-5-------------7-7--|
|-----------------------------------------------------------|

(repeat chorus)

pre breakdown (8th notes):

|------------------------------------------------7-6----------------|
|--9-9-9-9-9-9-9-9-9-9-9-9-9-9-9-9-9-9-9-9-9-9-9-----9-7------------|
|--------------------------------------------------------9-8-7-5-4--|
|-------------------------------------------------------------------|


breakdown (8th notes):

|-------------------------------------------------------------------|
|-------------------------------------------------------------------|
|----------------------------------5-5-5-5-5-5-5-5------------------|
|--7-7-7-7-7-7-7-7-3-3-3-3-3-3-3-3-----------------5-5-5-5-5-5-5-5--|

|-------------------------------------------------------------------|
|-------------------------------------------------------------------|
|----------9\--------------7\------5-5------------------------------|
|--7-7-7-7---------3-3-3-3-------------2-2-3-3-4-4-5-5-4-4-5-5-6-6--|

|-------------------------------------------------------------------|
|-------------------------------------------------------------------|
|----------------------2-2-3-3-4-4-5-5---------------------4-4-5-5--|
|--7-7-7-7-7-7-7-7-3-3-----------------2-2-3-3-4-4-5-5-7-7----------|

|------------------------------------------4-4----------------------|
|--------------------------------------4-4-----6-6-7-7---------4-4--|
|----------9\--------------7\------5-5-----------------4-4-7-7------|
|--7-7-7-7---------3-3-3-3------------------------------------------|

(whole notes)						(16th notes)
|-------------------------------------------------------------------|
|--5-----------4-------------------5-5-5-5-5-5-5-5-7-7-5-5-4-4------|
|------------------------7-------------------------------------7-7--|
|-------------------------------------------------------------------|

(repeat chorus)

outro:

|--------------------------------------------------|
|--------------------------------------------------|
|--------------------------------------------------|
|--7--7--7-7-7--3-3-5-5-5--7--7--7-7-7--3-3-5-5-5--|

|-----------------------------|
|-----------------------------|
|-----------------------------|
|--7--7--7-7-7--3-3-5-5-5--7--|
Comments