Afi - Rabbits Are Roadkill On Route 37 Chords & Tabs

 

Rabbits Are Roadkill On Route 37 Chords & Tabs

Afi Chords & Tabs

Version: 1 Type: Bass Tab

Rabbits Are Roadkill On Route 37 Bass Tab

   
Tabbed By : ME

Tuning: 1/2 step down (Eb,Ab,Db,Gb)

Gb|-------------------------------------|
Db|-------------------------------------|          Repeat
Ab|-------------------------------------|          8 times
Eb|-77777777-55555555-33333333-00000000-| (first 0 of last time let it ring)

Gb|---------------------------------------------------------------|
Db|---------------------------------------------------------------|  
Ab|-------------------------------------------------------5-4-2-0-| 
Eb|-7-3-5--55-5-5--5--2/7--77-7-7--7-3-5--55-5-5--5-5-5-5---------|

Gb|-----------------------------------------------------------------|
Db|-----------------------------------------------------------------|
Ab|---------------------------------------------------------5-4-2-0-|
Eb|-3-3-3-3-5-55-5-5-5-5-2/7-77-7-7--7-3-5--55-5-5--5-5-5-5---------|

Gb|-------------------------------------|
Db|-------------------------------------|          Repeat   
Ab|-------------------------------------|          6 times
Eb|-77777777-55555555-33333333-00000000-| (first 0 of last time let it ring)

Gb|---------------------------------------------------------------|
Db|---------------------------------------------------------------|  
Ab|-------------------------------------------------------5-4-2-0-| 
Eb|-7-3-5--55-5-5--5--2/7--77-7-7--7-3-5--55-5-5--5-5-5-5---------|

Gb|-----------------------------------------------------------------|
Db|-----------------------------------------------------------------|
Ab|---------------------------------------------------------5-4-2-0-|
Eb|-3-3-3-3-5-55-5-5-5-5-2/7-77-7-7--7-3-5--55-5-5--5-5-5-5---------|

Gb|----------------|----------------------|
Db|----------------|----------------------|
Ab|----------------|----------------------|
Eb|-7~~~~~~~~~~~~~~|~~~~~~~~~~~~~~~~~~~~~~|

Gb|----------------|----------------------|
Db|----------------|----------------------|
Ab|----------------|----------------------|
Eb|-3~~~~~~~~~~~~~~|~~~~~~~~~~~3/55555555-|
[ Tab from: http://www.guitartabs.cc/tabs/a/afi/rabbits_are_roadkill_on_route_37_btab.html ]
Gb|------------------------------------------------------------------------|
Db|------------------------------------------------------------------------|
Ab|------------------------------------------------------------------------|
Eb|-77777777-55555555-33333333-77777777\3333333333333333-0000000000000000--|

Gb|---------------------------------------------------|
Db|---------------------------------------------------|
Ab|---------------------------------------------------|
Eb|-7~-0-2-3-------0-2-3-55----/7~-0-2-3-----0-2-3-55-|

Gb|---------------------------------------------------|
Db|---------------------------------------------------|
Ab|---------------------------------------------------|
Eb|--/7~~0-2-3~~~~~0-2-3-55555--7~~0-2-3~~~~~0-2-3-5--|

Gb|------------------------------------------------------------------------|
Db|------------------------------------------------------------------------|
Ab|------------------------------------------------------------------------|
Eb|-77777777-55555555-33333333-00000000-77777777-55555555-33333333-00000000|

Gb|--------------|------------------------------------------------------|
Db|---rest for---|------------------------------------------------------|
Ab|--one measure-|------------------------------------------------------|
Eb|--------------|-/77777777-99999999-1010101010101010-1212121212121212-|

Gb|-----------------------------------------------------------------|
Db|-----------------------------------------------------------------|
Ab|---------------------------------------------------------5-4-2-0-|
Eb|-3-3-3-3-5-55-5-5-5-5-2/7-77-7-7--7-3-5--55-5-5--5-5-5-5---------|

Gb|---------------------------------------------------------------|
Db|---------------------------------------------------------------|  
Ab|-------------------------------------------------------5-4-2-0-| 
Eb|-7-3-5--55-5-5--5--2/7--77-7-7--7-3-5--55-5-5--5-5-5-5---------|

Gb|------------------------------------------------------------------|
Db|------------------------------------------------------------------|
Ab|---------------------------------------------------------5-4-2-0-2|
Eb|-3-3-3-3-5-55-5-5-5-5-2/7-77-7-7--7-3-5--55-5-5--5-5-5-5----------|



| /  slide up
| \  slide down
| h  hammer-on
| p  pull-off
| ~  vibrato
| +  harmonic
| x  Mute note
============================================================================