Afi - Of Greetings And Goodbyes Chords & Tabs

 

Of Greetings And Goodbyes Chords & Tabs

Afi Chords & Tabs

Version: 4 Type: Tab 0 ratings
1 star 2 stars 3 stars 4 stars 5 stars
comments

Of Greetings And Goodbyes Tab

----------------------------------------------------------------------------
 Of Greetings and Goodbyes - AFI
----------------------------------------------------------------------------
Tabbed by:rockr_01
Email:afmondragonb@aol.com

--This the first tab that i have written, if you have any questions or comments,
please Email me--
--AFI rocks!!--
Tuning:normal
[ Tab from: http://www.guitartabs.cc/tabs/a/afi/of_greetings_and_goodbyes_tab_ver_4.html ]
Intro
e|---------------------------------------------------------------------------|
B|------------5----------7-7-------------------------------------------------|
G|------------5----------7-7-------------------------------------------------|
D|--2----222--3-5---5-5--5-5--5/7/2-2----------------------------------------|
A|--2----222----5---5-5-------5/7/2-2----------------------------------------|
E|--0----000----3---3-3-------3/5/0-0----------------------------------------|
Intro Second Time
e|---------------------------------------------------------------------------|
B|-------------5----------7-7------------------------------------------------|
G|-------------5----------7-7------------------------------------------------|
D|---2----222--3-5---5-5--5-5--5/7/4-4---------------------------------------|
A|---2----222----5---5-5-------5/7/4-4---------------------------------------|
E|---0----000----3---3-3-------3/5/2-2---------------------------------------|
            (Bass Part in between these two)
Riff 1
e|---------------------------------------------------------------------------|
B|---------------------------------------------------------------------------|
G|--12121212----7------------------------------------------------------------|
D|---X-X-X-X----X------------------------------------------------------------|
A|--10101010----5------------------------------------------------------------|
E|---------------------------------------------------------------------------|
Chorus (Prt.1)
e|---------------------------------------------------------------------------|
B|--------------------------7------------------------------------------------|
G|--------------------------7------------------------------------------------|
D|-2-2--XXX-----5---5--XX---5--XXX--2----------------------------------------|
A|-2-2--XXX-----5---5--XX------XXX--2----------------------------------------|
E|-0-0--XXX-----3---3--XX------XXX--0----------------------------------------|
Prt. 2
e|---------------------------------------------------------------------------|
B|-------------------------777777777777777-----------------------------------|
G|-------------------------777777777777777-----------------------------------|
D|-2-2--XXX-----5---5--XX--555555555555555-----------------------------------|
A|-2-2--XXX-----5---5--XX----------------------------------------------------|
E|-0-0--XXX-----3---3--XX----------------------------------------------------|
Prt. 3
e|---------------------------------------------------------------------------|
B|------------5--5-----7-------9---9-----------------------------------------|
G|------------5--5-----7-------9---9-----------------------------------------|
D|--2-2--XXX--3--5-XX--5--XXX--7---7-----------------------------------------|
A|--2-2--XXX-------XX-----XXX------------------------------------------------|
E|--0-0--XXX-------XX-----XXX------------------------------------------------|
Prt. 4
e|---------------------------------------------------------------------------|
B|-----------------------7--7------------------------------------------------|
G|-----------------------7--7------------------------------------------------|
D|-2-2--XXX---5---5--XXX-5--5--XXX--7--7-------------------------------------|
A|-2-2--XXX---5---5--XXX-------XXX--7--7-------------------------------------|
E|-0-0--XXX---3---3--XXX-------XXX--5--5-------------------------------------|
Fill 1
e|---------------------------------------------------------------------------|
B|-121212121212121212121212121212--------------------------------------------|
G|--X-X-X-X-X-X-X-X-X-X-X-X-X-X-X--------------------------------------------|
D|-101010101010101010101010101010--------------------------------------------|
A|---------------------------------------------------------------------------|
E|---------------------------------------------------------------------------|
Middle Prt.
e|-777---------------------777-----------888-777-----------------------------|
B|----888--101010-------------888--101010------------------------------------|
G|---------------777--999----------------------------------------------------|
D|---------------------------------------------------------------------------|
A|---------------------------------------------------------------------------|
E|---------------------------------------------------------------------------|
Slow Prt.
e|---------------------------------------------------------------------------|
B|---------------------------------------------------------------------------|
G|----4----------------------------------------------------------------------|
D|-------------i dont know what happens here---------------------------------|
A|--3----2-------------------------------------------------------------------|
E|---------------------------------------------------------------------------|
Riff 2
e|---------------------------------------------------------------------------|
B|---------------------------------------------------------------------------|
G|-12121212------------------------------------------------------------------|
D|--X-X-X-X------------------------------------------------------------------|
A|-10101010------------------------------------------------------------------|
E|---------------------------------------------------------------------------|

Order:
Intro x1
Intro Second Time x1
Riff x1
Chorus Prt. 1 x1
Chorus Prt. 2 x1
Chorus Prt. 3 x1
Chorus Prt. 4 x1
Chorus Prt. 3 x1
Chorus Prt. 4 x1
Fill 1 x1
Intro x1
Intro Second Time x1
MIddle Prt. x2
Chorus Prt. 1 x1
Chorus Prt. 2 x1
Chorus Prt. 3 x1
Chorus Prt. 4 x1
Chorus Prt. 3 x1
Chorus Prt. 4 x1
Middle Prt. x1
(pause)
Slow Prt. x3
Riff 2 x1
Chorus Prt. 3 x1
Chorus Prt. 4 x1
Chorus Prt. 3 x1
Chorus Prt. 4 x1
Chorus Prt. 3 x1
Chorus Prt. 4 x1
Middle Prt. w/ Chorus Prt. 3&4 x2 (The last time you play the middle part,
the last notes are different)
Comments