Afi - Ny Quil Chords & Tabs

 

Ny Quil Chords & Tabs

Afi Chords & Tabs

Version: 1 Type: Tab 0 ratings
1 star 2 stars 3 stars 4 stars 5 stars
comments

Ny Quil Tab

ARTIST:   AFI
SONG:     NY - QUILL
ALBUM:    ANSWER THAT AND STAY FASHIONABLE

By Domenic Martino

Standard tuning: EADGBe



Intro:

|----------------------------------------------------------
|----------------------------------------------------------
|------9----------7----------9----------7------------------
|------9-let-ring-7-let-ring-9-let-ring-7-let-ring---------
|------7----------5----------7----------5------------------
|----------------------------------------------------------

intro part 2: (with bass and drums)

|----------------------------------------------------------
|----------------------------------------------------------
|---9x9x9x9-99--7x7x7x7-77---------------------------------
|---9x9x9x9-99--7x7x7x7-77------X2-------------------------
|---7x7x7x7-77--5x5x5x5-55---------------------------------
|----------------------------------------------------------

|----------------------------------------------------------
|----------------------------------------------------------
|---9--9-9-----7--7-7-----4--------------------------------
|---9--9-9-----7--7-7-----4-let-ring-----------------------
|---7--7-7-----5--5-5-----2--------------------------------
|----------------------------------------------------------

pre-verse:
[ Tab from: http://www.guitartabs.cc/tabs/a/afi/ny_quil_tab.html ]
|----------------------------------------------------------
|----------------------------------------------------------
|---4xxxxxx7--------------7xxxxxx7---4---------------------
|---4xxxxxx7---7xxxxxx7---7xxxxxx7---4-let-ring------------
|---2xxxxxx5---7xxxxxx7---5xxxxxx5---2---------------------
|--------------5xxxxxx5------------------------------------

verse:

|----------------------------------------------------------
|----------------------------------------------------------
|---4444444-7---------------77777777---44444444------------
|---4444444-7---7777777-7---77777777---44444444---X2-------
|---2222222-5---7777777-7---55555555---22222222------------
|---------------5555555-5---------------------------------- 

chorus part 1:

(* means block)

|----------------------------------------------------------
|----------------------------------------------------------
|---7---4---7-------7---4---7*7*7*7*7*7--------------------
|---7---4---7---7---7---4---7*7*7*7*7*7--------------------
|---5---2---5---7---5---2---5*5*5*5*5*5--------------------
|---------------5------------------------------------------

chorus part 2:

|----------------------------------------------------------
|----------------------------------------------------------
|---7---4---7-------7---4---7*7*7*7---7*7*7*7---7*7*7*7-9--
|---7---4---7---7---7---4---7*7*7*7-7-7*7*7*7-7-7*7*7*7-9--
|---5---2---5---7---5---2---5*5*5*5-7-5*5*5*5-7-5*5*5*5-7--
|---------------5-------------------5---------5------------

the song order is:

intro
intro part 2
pre-verse
verse
chorus part one
chorus part two
pre-verse X2
verse
chorus part one
chorus part two     (1234)
verse X3
chorus part one
chorus part two 
Comments