Afi - Morningstar Chords & Tabs

 

Morningstar Chords & Tabs

Afi Chords & Tabs

Version: 8 Type: Tab 0 ratings
1 star 2 stars 3 stars 4 stars 5 stars
comments

Morningstar Tab

Band: AFI
Song: Moning Star
Normal Tuning
Text & Musik by AFI

Tabbed by Davey

I think this is the right Version of this fantastic song. I needed lots of time for it, 
it sounds fantastic.

Intro:

|--x---3---5---7---3---5---3---3---5---6---3---x---3---5---7---3---5---3---|
|--x---3---5---8---3---5---3---3---5---6---3---x---3---5---8---3---5---3---|
|--x---4---6---9---4---6---4---4---6---7---4---x---4---6---9---4---6---4---|
|--2---5---7---9---5---7---5---5---7---8---5---2---5---7---9---5---7---5---|
|--2---5---7---7---5---7---5---5---7---8---5---2---5---7---7---5---7---5---|
|--x---3---5---7---3---5---3---3---5---6---3---x---3---5---7---3---5---3---|


|-3---5---5---|
|-3---5---7---|
|-4---6---7---|
|-5---7---7---|
|-5---7---5---|
|-3---5---5---|

|--------------------------------------------x-----7--|
|--------------------------------------------x-----8--|
|--------------------------------------------x-----9--|
|--------------------------------------------2-----9--|
|------------5-----------7------------5----2------7---|
|---x---3-------x---5-------x---3--------x------7-----|    slide down to

Verse:

|---x---7---3------------7---x---7---3--------5-----------------------------|
|---x---8---3------------7---x---8---3--------7-----------------------------|
|---x---9---4---4---7---8---x---9---4---4---7-----------------x-------------|
|---2---9---5---7---4---9---2---9---5---7---7-------------4-------4---------|
|---2---7---5---5---5---9---2---7---5---5---5---------5---------------5-----|
|---x---7---3---3---5---7---x---7---3---3---5-----7-------------------------|

Chorus:

|---3---7---5---|
|---5---8---7---|
|---5---9---7---|
|---5---9---7---|
|---3---7---5---|
|---3---7---5---|

Riff over 2nd half of 2nd chorus:

|---x---x---x----x-x-x----x---x---x----x-x-x----x---x---x---x---x---x----x---|
|---8---7---5----8-7-5----8---7---5----8-7-5----7---5---3---8---7---5----8---|
|----------------------------------------------------------------------------|
|----------------------------------------------------------------------------|
|----------------------------------------------------------------------------|
|----------------------------------------------------------------------------|

|-------------------------------|
|7-5----8---7---5---------------|
|-------------------------------|
|-------------------------------|
|-------------------------------|
|-------------------------------|

|---x-x-x----x---x---10---12--------|
|---8-7-5----7---8---10----x--------|
|-----------------------------------|
|-----------------------------------|
|-----------------------------------|
|-----------------------------------|

Break:

|-------x-----------x-----------10------------8------------7----------------|
|-----------8-----------8-------------8------------8----------------8-------|
|---9-----------9-----------9-------------9------------9-------7-------7----|
|---------------------------------------------------------------------------|
|---------------------------------------------------------------------------|
|---------------------------------------------------------------------------|

--------------------------------------------|
-----------8-------8-------7----------------|
------7-------7-------7-------7---7---------|
--------------------------------------------|
--------------------------------------------|
--------------------------------------------|
[ Tab from: http://www.guitartabs.cc/tabs/a/afi/morningstar_tab_ver_8.html ]
|------------------------------x-----------x-----------10-----------8--------|
|---7-----------7-----------------8-----------8-------------8-----------8----|
|-------7---7-------7----9-----------9-----------9-------------9-------------|
|----------------------------------------------------------------------------|
|----------------------------------------------------------------------------|
|----------------------------------------------------------------------------|

----7--------------------------------|
------------8------------8-----------|
9-------7-------7---7-------7--------|
-------------------------------------|
-------------------------------------|
-------------------------------------|

|-----------------------------------------------|
|---10-------7------------7----------7----------|
|---------7-------7---7-------7--7-------7------|
|-----------------------------------------------|
|-----------------------------------------------|
|-----------------------------------------------|

Riff #2 begins with vocals on 2nd half of clean tone part:

|---------------------------------------------------------------------------|
|--------8---7---------8--8--8--8--8---10--10--10---7--7--7--7-7------------|
|---9-------------9----9--9--9--9--9----9---9---9----7--7--7--7-7-----------|
|---------------------------------------------------------------------------|
|---------------------------------------------------------------------------|
|---------------------------------------------------------------------------|


End:  This part is kind of tricky, the chords in parentheses are arpeggiated
Also, all the chords
that are only open strings are played with upstrokes
|---x---x--------------------------------------------------------------------|
|---x---x------------x---x---x---x----(x)---x--------(x)---x-------x---x-----|
|---x---x---x-------x---x---x---x----(4)--------4---(2)--------2---x---x-----|
|---2-----------2----4-------5--------(5)-------------(5)------------5-------|
|---2------------------------------------------------------------------------|
|---x------------------------------------------------------------------------|

-----3----------------------|
3---------------------------|
4---4---7---9---11----------|
--------5---7---x---x----x--|
-----5---5---5---7----9-----|
-----3---3------------------|

2nd time through is the same but at the end this progression replaces the ascending octave chords
|---5----------------------------------------------------|
|---7----------------------------------------------------|
|---7----x-----------------------------------------------|
|---7----4-----then slide down into next phrase----------|
|---5----5-----------------------------------------------|
|---5----------------------------------------------------|

The final time ends with this chord:

|----7----|
|----7----|
|----8----|
|----9----|
|----9----|
|----7----|

2nd part of End:

|---------------------------------------------------------------------------|
|---------------------------------------------------------------------------|
|---x---x---x-------------------------x---x---x-----------------------------|
|---2---2---2----12---12slide11---2---2---2----11--11slide14---12-----5---4-|
|---2---2---2-------------------------2---2---2-----------------------------|
|---x---x---x----10---10slide9-----x---x---x----9----9slide12----10----3----|


-----3------------------|
-----3------------------|
--4----2--2-------------|
--7---------------------|
--5----5---5------------|
2---2-------------------|


The only difference in the 4 measure of the end are the changes in the octave chord progression,
and they are:

|---------------------|
|---------------------|
|----7---7/9----------|
|---------------------|
|----5---5/7----------|
|---------------------|


|-----------------------|
|----8---8/10-----------|
|-----------------------|
|-----------------------|
|----7---7/9------------|
|-----------------------|

That's it! Sounds really great!

Thx Davey
Comments