Afi - Morningstar Chords & Tabs

 

Morningstar Chords & Tabs

Afi Chords & Tabs

Version: 1 Type: Tab 0 ratings
1 star 2 stars 3 stars 4 stars 5 stars
comments

Morningstar Tab

By: Eric Canoura 
Ride BMX!

intro/verse palm muted
e|------------------------------------------------------------------------|
B|------------------------------------------------------------------------|
G|-----------------------------------------------------------------------|
D|---9------9------6---2----4---------------------------------------------|
A|---7------6------4---0----2---------------------------------------------|
E|------------------------------------------------------------------------|
[ Tab from: http://www.guitartabs.cc/tabs/a/afi/morningstar_tab.html ]
fill
e|------------------------------------------------------------------------|
B|------------------------------------------------------------------------|
G|------------------------------------------------------------------------|
D|------2-------4-----6-6-------------------------------------------------|
A|---4----4--4----4-------------------------------------------------------|
E|------------------------------------------------------------------------|

chorus
e|------------------------------------------------------------------------|
B|------------------------------------------------------------------------|
G|--------4----6----4-----2------4------6---------------------------------|
D|---4----4----6----4-----2------4------6---------------------------------|
A|---4----2----4----2-----0------2------4---------------------------------|
E|---2--------------------------------------------------------------------|

At the end of the song the chorus is distorted, and thats really it.

Comments