Afi - Morningstar Chords & Tabs

 

Morningstar Chords & Tabs

Afi Chords & Tabs

Version: 2 Type: Bass Tab 0 ratings
1 star 2 stars 3 stars 4 stars 5 stars
comments

Morningstar Bass Tab

Band: AFI
Song: Morningstar
Album: The Art Of Drowning

Tabbed by: Shaun McDonald 


Verse(no bass)

Chorus1:

G|6---------------|4------4--------|6-------6-------|9-------9-------|
D|4------4--------|----------------|----------------|----------------|
A|----------------|----------------|----------------|----------------|
E|----------------|----------------|----------------|----------------|

G|----------------|----------------|----------------|6-6-6-6-6-6-6-6-|
D|7------7--------|9------9--------|----------------|----------------|
A|----------------|----------------|----------------|----------------|
E|----------------|----------------|----------------|----------------|

Verse(no bass)

Chorus2:

G|6---------------|4------4--------|6-------6-------|9-------9-------|
D|4------4--------|----------------|----------------|----------------|
A|----------------|----------------|----------------|----------------|
E|----------------|----------------|----------------|----------------|

G|----------------|----------------|6-6-6-6-6-6-6-6-|6-6-6-6-6-6-6-6-|
D|7------7--------|9------9--------|----------------|----------------|
A|----------------|----------------|----------------|----------------|
E|----------------|----------------|----------------|----------------|

G|6---------------|4------4--------|6-------6-------|9-------9-------|
D|4------4--------|----------------|----------------|----------------|
A|----------------|----------------|----------------|----------------|
E|----------------|----------------|----------------|----------------|

G|----------------|----------------|----------------|6-6-6-6-6-6-6-6-|
D|7------7--------|9------9--------|----------------|----------------|
A|----------------|----------------|----------------|----------------|
E|----------------|----------------|----------------|----------------|


Bridge (starts with no bass then this):
[ Tab from: http://www.guitartabs.cc/tabs/a/afi/morningstar_btab_ver_2.html ]
G|6---------------|4---------------|2---------------|----------------|
D|----------------|----------------|----------------|4---------------|
A|----------------|----------------|----------------|----------------|
E|----------------|----------------|----------------|----------------|

G|6-6-6-6-6-6-6-6-|4-4-4-4-4-4-4-4-|2---------------|----------------|
D|----------------|----------------|----------------|----------------|
A|----------------|----------------|----------------|----------------|
E|----------------|----------------|----------------|----------------|








End of Bridge (aka "start of heavy part"):

G|----------------|----------------|----------------|----------------|
D|----------------|----------------|----------------|----------------|
A|----------------|2-------2---2---|4-4-4-4-4-4-4-4-|4-4-4-4-4-4-/11\|
E|0-------0---0---|----------------|----------------|----------------|


Chorus3 (aka "the rest of the heavy part"):

G|----------------|----------------|----------------|----------------|
D|----------4-2---|----------------|----------------|----------2-----|
A|--------------4-|2-----2---2-2-3-|4-----4---4-2-0-|------------4-2-|
E|2-----2---------|----------------|----------------|0-----0---------|

G|----------------|----------------|----------------|----------------|
D|----------------|----------------|----------------|----------------|
A|0-----0---0-0-0-|2-----2---2-2-2-|4-4-4-4-4-4-4-4-|4-4-4-4-4-4-/11\|
E|----------------|----------------|----------------|----------------|

G|----------------|----------------|----------------|----------------|
D|----------4-2---|----------------|----------------|----------2-----|
A|--------------4-|2-----2---2-2-3-|4-----4---4-2-0-|------------4-2-|
E|2-----2---------|----------------|----------------|0-----0---------|

G|----------------|----------------|----------------|----------------|
D|----------------|----------------|----------------|----------------|
A|0-----0---0-0-0-|2---------------|4---------------|----------------|
E|----------------|----------------|----------------|----------------|
Comments