Afi - Modern Epic Chords & Tabs

 

Modern Epic Chords & Tabs

Afi Chords & Tabs

Version: 1 Type: Bass Tab 0 ratings
1 star 2 stars 3 stars 4 stars 5 stars
comments

Modern Epic Bass Tab

This really is a simple song. It didnt take that long to figure out.
Check it out.

Intro:
G:-------------------------------------------------------------------|
D:----------------2~--------------2-0-0-0-0-0-0-0-0------------------|
A:-------5~-5~-3----------5~-5~-3------------------------------------|
E:--5~-3-------------5~-3--------------------------------------------|

Riff 1/ Play
G:-------------------------------------------------------------------|
D:-----------------------------0-0-0-0-0-0-0-5-2*-5-3-2-0------------|
A:-0*-5-0-0-0-0-0-0-5-0-0--------------------------------------------|
E:-------------------------------------------------------------------|
[ Tab from: http://www.guitartabs.cc/tabs/a/afi/modern_epic_btab.html ]
Chorus
G:-------------------------------------------------------------------|
D:-----0"-5"-2"-0"-2-0-----------------------------------------------|
A:-0"------------------3-0"-0"---------------------------------------|
E:-------------------------------------------------------------------|

Bridge
G:-------------------------------------------------------------------|
D:-------------2^----------------------------------------------------|
A:-----5^-5^-3-------------------------------------------------------|
E:-5#-3--------------------------------------------------------------|

Riff 2
G:-------------------------------------------------------------------|
D:-----0"-5"-2"-0"-2-0---------0"-2-0--------0"-2-0------------------|
A:-0"------------------3-0"-0"--------3-0"-0"--------3-0~~-0-0-------|
E:-------------------------------------------------------------------|

Order
 Intro:1x
 Riff 1:2x
 Chorus:2x
 Riff 1:2x
 Chorus:2x
 Bridge: 2x
 Chorus: 1x
 Riff 2:1x


Well there it is..any questions, demands...if you dont like it. Send me
an e-mail at fkmr160@hotmail.com. I also can do nofx, pennywise (full cirlce)
and some other punk bands if youd like. ~Chase
Comments