Afi - Mini Trucks Suck Chords & Tabs

 

Mini Trucks Suck Chords & Tabs

Afi Chords & Tabs

Version: 1 Type: Tab 0 ratings
1 star 2 stars 3 stars 4 stars 5 stars
comments

Mini Trucks Suck Tab

AFI - "Mini Trucks Suck"
DarkAsAGothKirby@aol.com

Well, nobody tabbed this, so I did. Beleive it or not, it was hard, seeing as how poor
quality the song is. I hope it's right, and I'm not sure about the high up A in the
chorus. End on a [7799XX].

Intro:

E|----------------------------|
B|--(Drums)------(Drums)------|
G|-----------9~-----------9~--|
D|-----------9~-----------9~--|
A|-----------7~-----------7~--|
E|-----------7~-----------7~--|

Chorus:
[ Tab from: http://www.guitartabs.cc/tabs/a/afi/mini_trucks_suck_tab.html ]
E|-----------------|
B|-----------------|
G|--9--13-9--------|
D|--9--13-9--7--9--|
A|--7--11-7--7--9--|
E|-----------5--7--|

Verse:

E|----------------------------------|
B|----------------------------------|
G|--------5--6-8----------5--6-8----|
D|--7--2--5--6-8-6--7--2--5--6-8-6--|
A|--7--2--3--4-6-6--7--2--3--4-6-6--|
E|--5--0---------4--5--0---------4--|

Verse: Continued

E|----------------------------------------------|
B|----------------------------------------------|
G|--4-------4-------4------------------------8--|
D|--4-2-5-7-4-2-5-7-4-2-5-7--7-5-7-5-7-5-7-9-8--|
A|--2-2-5-7-2-2-5-7-2-2-5-7--7-5-7-5-7-5-7-9-6--|
E|----0-3-5---0-3-5---0-3-5--5-3-5-3-5-3-5-7----|
Comments