Afi - Malleus Maleficarum Chords & Tabs

 

Malleus Maleficarum Chords & Tabs

Afi Chords & Tabs

Version: 2 Type: Tab 0 ratings
1 star 2 stars 3 stars 4 stars 5 stars
comments

Malleus Maleficarum Tab

Band:AFI
Song:Malleus Maleficarum
Album:Black Sails in the Sunset (1999)
Guitarist:Jade Puget
Tabbed by:atticusloserkid 

KEY:
/= slide to
PM.= palm mute
*= harmonics
>=pickslide


Intro
e|----------------------7------------------------7---|
B|----------------------8------------------------8---|
G|-7/99/12/9--7/99/12/9-9---7/99/12/9--7/99/12/9-9---|
D|-7/99/10/9--7/99/10/9-----7/99/10/9--7/99/10/9-----|
A|-5/77/10/7--5/77/10/7-----5/77/10/7--5/77/10/7-----|
E|---------------------------------------------------|

Verse
e|----------------------------------------------------------------------------|
B|----------------------------------------------------------------------------|
G|----------77--------------------77--------777777777121212121214141414161616-|
D|-222---55-77-99-222----222->-55-77-99-22--xxxxxxxxxxxxxxxxxxxxxxxxxxxxxxxxx-|
A|-222---55-55-99-222----222->-55-55-99-22--999999999101010101012121212141414-|
E|-000---33----77-000----000->-33----77-00------------------------------------|
[ Tab from: http://www.guitartabs.cc/tabs/a/afi/malleus_maleficarum_tab_ver_2.html ]
Chorus
e|------------------------------------------------------------------------|
B|------------------------------------------------------------------------|
G|-----77-444--------------777-4444------------77-444---------------------|
D|-55--77-444-2222-----55--777-4444-22-----55--77-444-2222--5-55555555/---|
A|-55--55-222-2222-----55--555-2222-22-----55--55-222-2222--5-55555555/---|
E|-33---------0000-----33-----------00-----33---------0000--3-33333333/---|

e|----------------------|
B|----------------------|
G|----------------------|
D|-9999999999-----------|
A|-9999999999-----------|
E|-7777777777-----------|

Bridge pt 1
e|*12-----------------------------------------|
B|*12-----------------------------------------|
G|*12---7/99/12/9----------7/99/12/9----------|
D|------7/99/10/9--2-5-2---7/99/10/9--5-7-2---|
A|------5/77/10/7--2-5-2---5/77/10/7--5-7-2---|
E|-----------------0-3-0--------------3-5-0---|

Bridge pt 2
e|------------------------------------------------------|
B|------------------------------------------------------|
G|---- --------------9--10--11--13--------7--12--14--16-|
D|-22-222--22--------9--8---9---11----------------------| strum these chords
A|-22-222--22 -------7--8---9---11--------9--10--12--14-| like end of verse
E|-00-000--00-------------------------------------------|
 PM.. ...  ..        .............

Ending thing
e|-----------*12-------19*--------------------|
B|--*12---------------------------------------|
G|--------------------------------------------|
D|--------------------------------------------|
A|--------------------------------------------|
E|--------------------------------------------|

Song Order:
Intro
Verse
Chorus
Verse
Chorus
Bridge pt 1
Bridge pt 2
Chorus
Bridge pt1
Ending thing
Comments