Afi - Initiation Chords & Tabs

 

Initiation Chords & Tabs

Afi Chords & Tabs

Version: 2 Type: Tab 0 ratings
1 star 2 stars 3 stars 4 stars 5 stars
comments

Initiation Tab

Hello Again!

*****************************
KEY:
*-palm mute
=-whole rest
+..-half rest double dotted
\-slide out of downwards
*****************************
INTRO:
Clean *palm muted until outro*                                       x2 
e|--------------------------------------------------------------------|
B|--------------------------------------------------------------------|
G|--------------------------------------------------------------------|
D|--99999999--1010101010101010--7777-8888-99999999--------------------|
A|--77777777---7-7-7-7-7-7-7-7--7777-7777-77777777--------------------|
E|--------------------------------------------------------------------|

e|--------------------------------------------------------------------|
B|--------------------------------------------------------------------|
G|--------------------------------------------------------------------|
D|--99999999--1010101010101010----------------------------------------|
A|--77777777---7-7-7-7-7-7-7-7----------------------------------------|
E|--------------------------------------------------------------------|
[ Tab from: http://www.guitartabs.cc/tabs/a/afi/initiation_tab_ver_2.html ]
OUTRO:
Distortion               all 16th notes from here on
e|--------------------------------------------------------------------|
B|--------------------------------------------------------------------|
G|--------------------------------------------------------------------|
D|---=-------=-----+..---12\88888888-1010101010101010-----------------|
A|-----------------------10\77777777--7-7-7-7-7-7-7-7-----------------|
E|--------------------------------------------------------------------|
                                                       x3   whole note
e|------------------------------------------------------|-------------|
B|------------------------------------------------------|-------------|
G|------------------------------------------------------|-------------|
D|--99999999-1010101010101010-88888888-1010101010101010-|-9\----------|
A|--77777777--7-7-7-7-7-7-7-7-77777777--7-7-7-7-7-7-7-7-|-7\----------|
E|------------------------------------------------------|-------------|


Hope You Enjoyed It!

Tabbed By: Keegan
                         (12)
Note:On the outro the G5 (10) doesnt slide out of downwards its a normal slide.
        8                         8                             8
And the 7 on the outro might be a 6 but it sounds best with the 7.
Comments