Afi - High School Football Hero Chords & Tabs

 

High School Football Hero Chords & Tabs

Afi Chords & Tabs

Version: 1 Type: Tab 0 ratings
1 star 2 stars 3 stars 4 stars 5 stars
comments

High School Football Hero Tab

AFI - High school Football Hero
By:Andrew Mcshan(Guitarguyx182@belg88.com)

Intro
e|------------------------------|
B|------------------------------|
G|------------------------------|
D|---7~~~---7~~~------7~~~------|
A|---7~~~---7~~~------7~~~------|
E|---5~~~---5~~~------5~~~------|
[ Tab from: http://www.guitartabs.cc/tabs/a/afi/high_school_football_hero_tab.html ]
Verse
e|------------------------------|
B|------------------------------|
G|-----7--5-----------5---------|
D|-7---7--5---7---5---5---------|
A|-7---5--3---7---5---3---------|
E|-5----------5---3-------------|

Chorus
e|---------------------------------------------------------------------------|
B|---------------------------------------------------------------------------|
G|------7--------7--------7------9-------7--------7--------7-------9---------|
D|--7---7---5----7-----7--7---5--9---7---7----5---7---7----7----5--x---------|
A|--7---5---5----5-----7--5---5--7---7---5----5---5---7----5----5--7---------|
E|--5-------3----------5------3------5--------3-------5---------3------------|
Comments