Afi - Halloween Chords & Tabs

 

Halloween Chords & Tabs

Afi Chords & Tabs

Version: 5 Type: Tab 0 ratings
1 star 2 stars 3 stars 4 stars 5 stars
comments

Halloween Tab

AFI- Halloween (Misfits cover)
standard tuning
[ Tab from: http://www.guitartabs.cc/tabs/a/afi/halloween_tab_ver_5.html ]
Intro
e|-------------------------------------------|
B|-------------------------------------------|
G|-------------------------------------------|
D|--10----10--------10-10-10-10--------------|
A|---9-----9---------9--9--9--9--------------|
E|---7-----7---------7--7--7--7--------------|
Verse
e|-----------------------------------------|
B|-----------------------------------------|
G|-----10/11-------------------------------|
D|--9--10/11--9/5--7-----------------------|
A|--9--10/11--9/5--7-----------------------|
E|--7--9-/10--7/3--5-----------------------|
Prechorus
e|-----------------------------------------|
B|-----------------------------------------|
G|-----------------------------------------|
D|--10--9----4--5--4--5--4--5--9-----------|
A|---9--9----4--5--4--5--4--5--9-----------|
E|---7--7----2--3--2--3--2--3--7-----------|
Chorus
e|------------------------------------------|
B|------------------------------------------|
G|------------------------------------------|
D|--9--7--9--7------------------------------|
A|--9--7--9--7------------------------------|
E|--7--5--7--5------------------------------|
that's about the gist of it. its pritty easy.
/=slide
-erin
Comments