Afi - Halloween Chords & Tabs

 

Halloween Chords & Tabs

Afi Chords & Tabs

Version: 3 Type: Tab 0 ratings
1 star 2 stars 3 stars 4 stars 5 stars
comments

Halloween Tab

   
-------------------------------------------------------------------------------
			  HALLOWEEN - AFI
-------------------------------------------------------------------------------

Tabbed by: danc446
Email: danc446@yahoo.com

Tuning: Standard

INTRO
e|-------------------------THIS IS THE CHORD-------|
B|-------------------------THIS IS NOT A MISTAKE.--|
G|---8::::--8::::-8::::----------------------------|
D|---8::::--8::::-8::::----------------------------|
A|---7::::--7::::-7::::----------------------------|
E|-------------------------------------------------|

VERSE
e|---------------------------------------------------|
B|---------------------------------------------------|
G|---------------5-5-5-5-5-5--------------PLAY TWICE-|
D|---7-7-7-7-7-7-5-5-5-5-5-5-3-3-3-5-5-5-------------|
A|---7-7-7-7-7-7-3-3-3-3-3-3-3-3-3-5-5-5-------------|
E|---5-5-5-5-5-5-------------1-1-1-3-3-3-------------|

BASS FILL       
G|---------------|
D|--7h8-8-8-8-7:-|
A|0:-------------|
E|---------------|
[ Tab from: http://www.guitartabs.cc/tabs/a/afi/halloween_tab_ver_3.html ]
PRECHORUS
e|---------------------------------------------------------------------------|
B|---------------------------------------------------------------------------|
G|---9-9-9-10-10-10--9-9-9-10-10-10--------9-9-9-10-10-10--9-9-9-10-10-10----|
D|---9-9-9-10-10-10--9-9-9-10-10-10--7:-7:-9-9-9-10-10-10--9-9-9-10-10-10----|
A|---7-7-7--8--8--8--7-7-7--8--8--8--7:-7:-7-7-7--8--8--8--7-7-7--8--8--8----|
E|-----------------------------------5:-5:-----------------------------------|

CHORUS
e|--------------------------------------------------------|
B|--------------------------------------------------------|
G|--------------------------------------------------------|
D|---7-7-7-7-7-7--5-5-5-5-5-5--7-7-7-7-7-7--5-5-5-5-5-5---|
A|---7-7-7-7-7-7--5-5-5-5-5-5--7-7-7-7-7-7--5-5-5-5-5-5---|
E|---5-5-5-5-5-5--3-3-3-3-3-3--5-5-5-5-5-5--3-3-3-3-3-3---|


| /  slide up
| \  slide down
| h  hammer-on
| p  pull-off
| ~  vibrato
| +  harmonic
| x  Mute note

===============================================================================
Comments