Afi - God Called In Sick Today Chords & Tabs

 

God Called In Sick Today Chords & Tabs

Afi Chords & Tabs

Version: 9 Type: Tab 0 ratings
1 star 2 stars 3 stars 4 stars 5 stars
comments

God Called In Sick Today Tab

-----------------------------------------------------------------------------
	             GOD CALLED IN SICK TODAY - AFI
-----------------------------------------------------------------------------
Tabbed By: Kris McLellan
Email: ohh_fasho@hotmail.com


  ...pm.. - Palm Mute
     ~    - Sustain

Intro:
e|--------------------------------------------------------------------------|
B|--------------------------------------------------------------------------|
G|-----3-----3------------2-----2------------2-----2-----------3-----3------|
D|-5-5---5-5---5-5----3-3---3-3---3-3----0-0---0-0---0-0----1-1--1-1---1-0--|
A|--------------------------------------------------------------------------|
E|--------------------------------------------------------------------------|

e|--------------------------------------------------------------------------|
B|---------6----------------------------------------------------------------|
G|-----3-----3------------2-----2-----------2-3-2--------------3-------2----|
D|-5-5---5-----5-5----3-3---3-3---3-3---0-3-------3-0-0----1-1---0-3-3---3--|
A|--------------------------------------------------------------------------|
E|--------------------------------------------------------------------------|


Verse 1:             
e|--------------------------------------------------------------------------|
B|--------------------------------------------------------------------------|
G|-----3-----3------------2-----2------------2-----2-----------3-----3------|
D|-5-5---5-5---5-5----3-3---3-3---3-3----0-0---0-0---0-0----1-1--1-1---1-0--|
A|--------------------------------------------------------------------------|
E|--------------------------------------------------------------------------|
   
e|--------------------------------------------------------------------------|
B|---------6----------------------------------------------------------------|
G|-----3-----3------------2-----2---------2-3-2--------------3-------2------|
D|-5-5---5-----5-5----3-3---3-3-------0-3-------3-0-0----1-1---0-3-3---3----|
A|--------------------------------------------------------------------------|
E|--------------------------------------------------------------------------|
  
e|----------------------------------------------------------------------------|
B|----------------------------------------------------------------------------|
G|----------------------------------------------------------------------------|
D|-7-5-5-5-5-5-5-5-5--3-3-3-3-3-3-3-3--0-0-0-0-0-0-0-0--1-1-1-1-1-1-1-1-------|
A|-5-................................pm................................-------|
E|----------------------------------------------------------------------------|
       
e|--------------------------------------------------------------------------|
B|--------------------------------------------------------------------------|
G|-------------------------------------7-7-7-7-7-7-7----8-8-8-8-8-8---------|
D|-5-5-5-5-5-5-5-5--3-3-3-3-3-3-3-3----7-7-7-7-7-7-7----8-8-8-8-8-8---------|
A|-...............pm...............----5-5-5-5-5-5-5----6-6-6-6-6-6---------|
E|--------------------------------------------------------------------------|
  
Chorus:
e|--------------------------------------------------------------------------|
B|--------------------------------------------------------------------------|
G|-----------------------------------12--12-12-12--12-12--10-10--10--10-10--| (2x)
D|--8--8-8-8--8-8--10-10--10--10-10--12--12-12-12--12-12--10-10--10--10-10--| 
A|--8--8-8-8--8-8--10-10--10--10-10--10--10-10-10--10-10--8--8---8---8--8---|
E|--6--6-6-6--6-6--8--8---8---8--8------------------------------------------|

e|-------|
B|-------|
G|-------|
D|5~-----|
A|5~-----|
E|3~-----|
[ Tab from: http://www.guitartabs.cc/tabs/a/afi/god_called_in_sick_today_tab_ver_9.html ]
Verse 2:
e|---------------------------------------------------------------------------|
B|---------------------------------------------------------------------------|
G|------3-----3------------2-----2------------2-----2-----------3-----3------|
D|--5-5---5-5---5-5----3-3---3-3---3-3----0-0---0-0---0-0----1-1--1-1---1-0--|
A|--...................................pm..................................--|
E|---------------------------------------------------------------------------|

e|---------------------------------------------------------------------------|
B|---------6-----------------------------------------------------------------|
G|-----3-----3------------2-----2------------2-3-2--------------3-------2----|
D|-5-5---5-----5-5----3-3---3-3---3-3----0-3-------3-0-0----1-1---0-3-3---3--|
A|-..pm...-------.........pm..........--------------------........pm.......--|
E|---------------------------------------------------------------------------|

Interlude:
e|---------------------------------------------------------------------------|
B|---------------------------------------------------------------------------|     
G|---------------------------------------------------------------------------|
D|--12xxxx---12--12----10xxxx---10--10----7xxxx---7--7----8xxxx---8--8-------|
A|--12xxxx---12--12----10xxxx---10--10----7xxxx---7--7----8xxxx---8--8-------|
E|--10xxxx---10--10-----8xxxx----8---8----5xxxx---5--5----6xxxx---6--6-------|
    ..pm..             ..pm..             ..pm..          ..pm.. 

e|---------------------------------------------------------------------------|
B|---------------------------------------------------------------------------|     
G|---------------------------------------------------------------------------|
D|--12xxxx---12--12----10xxxx---10--10----7xxxx---7--7----88888---8--8-------|
A|--12xxxx---12--12----10xxxx---10--10----7xxxx---7--7----88888---8--8-------|
E|--10xxxx---10--10-----8xxxx----8---8----5xxxx---5--5----66666---6--6-------|
    ..pm..             ..pm..             ..pm..          

Chorus:
e|--------------------------------------------------------------------------|
B|--------------------------------------------------------------------------|
G|-----------------------------------12--12-12-12--12-12--10-10--10--10-10--| (4x)
D|--8--8-8-8--8-8--10-10--10--10-10--12--12-12-12--12-12--10-10--10--10-10--|
A|--8--8-8-8--8-8--10-10--10--10-10--10--10-10-10--10-10--8--8---8---8--8---|
E|--6--6-6-6--6-6--8--8---8---8--8------------------------------------------|


Bridge: 
e|---------------------------------------------------------------------|
B|---------------------------------------------------------------------|
G|---------------------------------------------------------------------| (4x)
D|--12--12-12-12--12-12--10-10--10--10-10--7--7-7-7--7-7--8-8--8--8-8--|
A|--12--12-12-12--12-12--10-10--10--10-10--7--7-7-7--7-7--8-8--8--8-8--|
E|--10--10-10-10--10-10---8--8---8---8--8--5--5-5-5--5-5--6-6--6--6-6--|

e|---------------------------------------------------|
B|---------------------------------------------------|
G|-----------------------------------8-8-8-8-8-8-8---|
D|--5~--3-3-3--8~--3-3-3--5~--5-5-5--8-8-8-8-8-8-8---|
A|--5~--3-3-3--8~--3-3-3--5~--5-5-5--6-6-6-6-6-6-6---|
E|--3~--1-1-1--6~--1-1-1--3~--3-3-3------------------|
                                    ...pm..

Chorus:
Play 4x
e|--------------------------------------------------------------------------|
B|--------------------------------------------------------------------------|
G|-----------------------------------12--12-12-12--12-12--10-10--10--10-10--|
D|--8--8-8-8--8-8--10-10--10--10-10--12--12-12-12--12-12--10-10--10--10-10--|
A|--8--8-8-8--8-8--10-10--10--10-10--10--10-10-10--10-10--8--8---8---8--8---|
E|--6--6-6-6--6-6--8--8---8---8--8------------------------------------------|

Outro:
e|---------------------|
B|---------------------|
G|---------------------|
D|--8~---3-3-3---5~----|
A|--8~---3-3-3---5~----|
E|--6~---1-1-1---3~----|
Comments