Afi - God Called In Sick Today Chords & Tabs

 

God Called In Sick Today Chords & Tabs

Afi Chords & Tabs

Version: 8 Type: Tab 0 ratings
1 star 2 stars 3 stars 4 stars 5 stars
comments

God Called In Sick Today Tab

this is one of the greatest songs by one of the greatest bands and
i love playing it hope u do too!


Tuning:
EADGBe


Intro
e|----------------------------------------------------------------
B|----------------------------------------------------------------
G|------3-----3----------2-----2----------2-----2---------3-----3-
D|--5-5---5-5---5-5--3-3---3-3---3-3--0-0---0-0---0-0-1-1---1-1---
A|----------------------------------------------------------------
E|----------------------------------------------------------------


e|----------------------------------------------------------------
B|---------------6------------------------------------------------
G|----------3------3---------2-----2---------2-3-2-----------3----
D|-1-0--5-5---5------5-5-3-3---3-3---3-3-0-3-------3-0-0-1-1---1-1
A|----------------------------------------------------------------
E|----------------------------------------------------------------


e|----------------------------------------------------------------
B|----------------------------------------------------------------
G|--3-------------------------------------------------------------
D|----1-0---------play 2x's--verse starts 2nd time----------------
A|----------------------------------------------------------------
E|----------------------------------------------------------------

[ Tab from: http://www.guitartabs.cc/tabs/a/afi/god_called_in_sick_today_tab_ver_8.html ]
then.....P.M. this, no distortion....yet.
e|----------------------------------------------------------------
B|----------------------------------------------------------------
G|--3-3-3-3-3-3-3-3--2-2-2-2-2-2-2-2--2-2-2-2-2-2-2-2-------------
D|--5-5-5-5-5-5-5-5--3-3-3-3-3-3-3-3--0-0-0-0-0-0-0-0-------------
A|----------------------------------------------------------------
E|----------------------------------------------------------------


e|----------------------------------------------------------------
B|----------------------------------------------------------------
G|--3-3-3-3-3-3-3-3-----------------------------------------------
D|--1-1-1-1-1-1-1-1-------play 2x's-------------------------------
A|----------------------------------------------------------------
E|----------------------------------------------------------------


Chorus with heavy distortion:
e|----------------------------------------------------------------
B|----------------------------------------------------------------
G|----------------------------------------------------------------
D|--4-4-4-4--3-3-3-3--5-5-5-5-5-5-5-5------play 2x's--------------
A|--4-4-4-4--3-3-3-3--5-5-5-5-5-5-5-5-----------------------------
E|--6-6-6-6--1-1-1-1--3-3-3-3-3-3-3-3-----------------------------

Then play intro with distortion and P.M. 2nd time and thats the whole song!
good luck!
Comments