Afi - God Called In Sick Today Chords & Tabs

 

God Called In Sick Today Chords & Tabs

Afi Chords & Tabs

Version: 7 Type: Tab 0 ratings
1 star 2 stars 3 stars 4 stars 5 stars
comments

God Called In Sick Today Tab

Song: God Called in Sick Today
Band: AFI
Album: Black Sails in the Sunset
Tablisher: Rion

~            Let ring
*            Palm mute
<>         Harmonic
/ Or \      Slide
h            Hammer On
p            Pull Off
X            mute 

Intro: (slow paced rhythm –Clean-)

|---------------------------------------------------------------------|
|---------------------------------------------------------------------|
|---------------------------------------------------------------------|
|-------8------8-----------7----7---------7----7----------8----8------|
|-10-10--10-10--10-10\-8-8--8-8--8-8--5-5--5-5---5-5/-6-6--6-6--6-6/--|
|---------------------------------------------------------------------|

|---------------------------------------------------------------------|
|---------------------------------------------------------------------|
|------------10-------------------------------------------------------|
|--------8-----8--8------7----7---------7-8p7-------------------------|
|--10-10--10----10--\8-8--8-8--8-8\-5-8-------8-5-5/-6-6----6-6/------|
|---------------------------------------------------------------------|

|---------------------------------------------------------------------|
|---------------------------------------------------------------------|
|---------------------------------------------------------------------|
|-------8------8-----------7----7---------7----7----------8----8------|
|-10-10--10-10--10-10\-8-8--8-8--8-8--5-5--5-5---5-5/-6-6--6-6--6-6/--|
|---------------------------------------------------------------------|

|---------------------------------------------------------------------|
|---------------------------------------------------------------------|
|------------10-------------------------------------------------------|
|--------8-----8--8------7----7---------7-8p7-------------------------|
|--10-10--10----10--\8-8--8-8--8-8\-5-8-------8-5-5/-6-6----6-6/------|
|---------------------------------------------------------------------|

|----------------------------------------------------------------|
|----------------------------------------------------------------|
|----------------------------------------------------------------|
|<12>------------------------------------------------------------|
|-10-10-10-10-10-10-10-10-10\-8-8-8-8-8-8-8-8\-5-5-5-5-5-5-5-5/--|
|----------------------------------------------------------------|
      *********************************************************







|--------------------------------------------------------------|
|--------------------------------------------------------------|
|--------------------------------------------------------------|
|--------------------------------------------------------------|
|-6-6-6-6-6-6-6-6-6\-10-10-10-10-10-10-10-10\-8-8-8-8-8-8-8-8\-|
|--------------------------------------------------------------|
  ******************************************************

|------------------------------------------|
|------------------------------------------|
|-7-7-7-7-7-7-7-7--8-8-8-8-8-8-8-8-8--X----|   
|-7-7-7-7-7-7-7-7--8-8-8-8-8-8-8-8-8--X----|
|-5-5-5-5-5-5-5-5/-6-6-6-6-6-6-6-6-6--X----|
|------------------------------------------|     
             -Distortion-

Chorus: (slow paced rhythm –Distortion-)

|---------------------------------------------------------------------|
|---------------------------------------------------------------------|
|--------------5----5-5-5-5-5-5X--------------------------------------|
|-8----8-8-8X--5----5-5-5-5-5-5X--5----5-5-5X---3----3-3-3-3-3-3/-----|
|-8----8-8-8X--3-3--3-3-3-3-3-3X--5----5-5-5X---3----3-3-3-3-3-3/-----|
|-6—6--6-6-6X---------------------3-3--3-3-3X---1-1--1-1-1-1-1-1/-----|

|---------------------------------------------------------------------|
|---------------------------------------------------------------------|
|--------------5----5-5-5-5-5-5X---------------8----8-8-8-8-8-8-/-----|
|-8----8-8-8X--5----5-5-5-5-5-5X--5----5-5-5X--8----8-8-8-8-8-8-/--5~-|
|-8----8-8-8X--3—3--3-3-3-3-3-3X--5----5-5-5X--6-6--6-6-6-6-6-6-/--5~-|
|-6—6--6-6-6X---------------------3-3--3-3-3X----------------------3~-|

Intro: (slow paced rhythm –Distortion-)

|---------------------------------------------------------------------|
|---------------------------------------------------------------------|
|---------------------------------------------------------------------|
|---------8------8-----------7----7---------7----7---------8----8-----|
|-/-10-10--10-10--10-10\-8-8--8-8--8-8--5-5--5-5--5-5/-6-6--6-6--6-6/-|
|---------------------------------------------------------------------|
    *****************************************************************

|---------------------------------------------------------------------|
|---------------------------------------------------------------------|
|------------10-------------------------------------------------------|
|-------8-------8----8-------7----7--------7-8p7------------8----8----|
|-10-10---10------10----\8-8--8-8--8-8\-5-8------8-5-5/-6-6--6-6--6-6-|
|---------------------------------------------------------------------|
  ***********            **************                 *************

|-----------------------------------------------|
|-----------------------------------------------|
|-----------------------------------------------|
|-12-12-12-12—12X--12~\-10-10-10-10--10X--10~\--|
|-12-12-12-12-12X--12~\-10-10-10-10--10X--10~\--|
|-10-10-10-10-10X--10~\--8--8--8--8---8X---8~\--|
  ***********           ***********                    

|------------------------------------|
|------------------------------------|
|------------------------------------|
|-7-7-7-7--7X--7~/-8-8-8-8--8X--8~/--|
|-7-7-7-7--7X--7~/-8-8-8-8--8X--8~/--|
|-5-5-5-5--5X--5~/-6-6-6-6--6X--6~/--|
 ********         ********

|-----------------------------------------------|
|-----------------------------------------------|
|-----------------------------------------------|
|-12-12-12-12—12X--12~\-10-10-10-10--10X--10~\--|
|-12-12-12-12-12X--12~\-10-10-10-10--10X--10~\--|
|-10-10-10-10-10X--10~\--8--8--8--8---8X---8~\--|
  ***********           ***********                    

|------------------------------------|
|------------------------------------|
|------------------------------------|
|-7-7-7-7-7-7-7-7-7/-8-8-8-8-8-8-8-8-|
|-7-7-7-7-7-7-7-7-7/-8-8-8-8-8-8-8-8-|
|-5-5-5-5-5-5-5-5-5/-6-6-6-6-6-6-6-6-|
  *******
          

Chorus: (slow paced rhythm –Distortion-)
[ Tab from: http://www.guitartabs.cc/tabs/a/afi/god_called_in_sick_today_tab_ver_7.html ]
|---------------------------------------------------------------------|
|---------------------------------------------------------------------|
|--------------5----5-5-5-5-5-5X--------------------------------------|
|-8----8-8-8X--5----5-5-5-5-5-5X--5----5-5-5X---3----3-3-3-3-3-3/-----|
|-8----8-8-8X--3-3--3-3-3-3-3-3X--5----5-5-5X---3----3-3-3-3-3-3/-----|
|-6—6--6-6-6X---------------------3-3--3-3-3X---1-1--1-1-1-1-1-1/-----|

|---------------------------------------------------------------------|
|---------------------------------------------------------------------|
|--------------5----5-5-5-5-5-5X---------------8----8-8-8-8-8-8X------|
|-8----8-8-8X--5----5-5-5-5-5-5X--5----5-5-5X--8----8-8-8-8-8-8X------|
|-8----8-8-8X--3—3--3-3-3-3-3-3X--5----5-5-5X--6-6--6-6-6-6-6-6X------|
|-6—6--6-6-6X---------------------3-3--3-3-3X-------------------------|

|---------------------------------------------------------------------|
|---------------------------------------------------------------------|
|--------------5----5-5-5-5-5-5X--------------------------------------|
|-8----8-8-8X--5----5-5-5-5-5-5X--5----5-5-5X---3----3-3-3-3-3-3/-----|
|-8----8-8-8X--3-3--3-3-3-3-3-3X--5----5-5-5X---3----3-3-3-3-3-3/-----|
|-6—6--6-6-6X---------------------3-3--3-3-3X---1-1--1-1-1-1-1-1/-----|


|---------------------------------------------------------------------|
|---------------------------------------------------------------------|
|--------------5----5-5-5-5-5-5X---------------8----8-8-8-8-8-8-------|
|-8----8-8-8X--5----5-5-5-5-5-5X--5----5-5-5X--8----8-8-8-8-8-8-------|
|-8----8-8-8X--3—3--3-3-3-3-3-3X--5----5-5-5X--6-6--6-6-6-6-6-6-------|
|-6—6--6-6-6X---------------------3-3--3-3-3X-------------------------|

Bridge: (slow paced –Distortion-) 

|--------------------------------------------|
|--------------------------------------------|
|--------------------------------------------|
|-12~--12~--12-12\-10-10-10-10-10-10-10-10\--|
|-12~--12~--12-12\-10-10-10-10-10-10-10-10\--|
|-10~--10~--10-10\--8--8--8--8--8--8--8--8\--|

|-------------------------------|
|-------------------------------|
|-------------------------------|
|-7~--7~--7-7/-8-8-8-8-8-8-8-8--|
|-7~--7~--7-7/-8-8-8-8-8-8-8-8--|
|-5~--5~--5-5/-6-6-6-6-6-6-6-6--|


|----------------------------------------------------------|
|----------------------------------------------------------|
|----------------------------------------------------------|
|----------------------------------------------------------|
|--8---8--8—10-10---8\-7--7-7-7-8-8-7-7---7--7-7--8-8--7/--|
|-10--10-10-10-10--10\-8--8-8-8-8-8-8-8---5--5-5--5-5--5/--|

|----------------------|
|----------------------|
|----------------------|
|----------8-8-7-7-7---|
|8--8-8-8--8-8-8-8-8---|
|6--6-6-6~~~-----------|

|------------------------------------------------------------|
|------------------------------------------------------------|
|------------------------------------------------------------|
|------------------------------------------------------------|
|--8---8--8—12-12---8\-7--7-7-7-10-10-7-7---7--7-7--9-9--7/--|
|-10--10-10-10-10--10\-8--8-8-8--8--8-8-8---5--5-5--5-5--5/--|

|----------------------------------------------|
|----------------------------------------------|
|------------------------------3~--------------|
|----------3-3-3-3-5~--3-3-3-3-3~--3-3-3-3-5~--|
|8--8-8-8--3-3-3-3-5~--3-3-3-3-1~--3-3-3-3-5~--|
|6--6-6-6--1-1-1-1-3~--1-1-1-1-----1-1-1-1-3~--|


|----------------------------------------------------|
|----------------------------------------------------|
|----------------------------------------------------|
|-5-5-5-5-5-5-5--8-8-8-8-8-8-8-8-8-8x~---------------|
|-5-5-5-5-5-5-5--8-8-8-8-8-8-8-8-8-8x~---------------|
|-3-3-3-3-3-3-3--6-6-6-6-6-6-6-6-6-6x~---------------|
                 *********               (Silence)


Chorus: (slow paced rhythm –Distortion-)

|---------------------------------------------------------------------|
|---------------------------------------------------------------------|
|--------------5----5-5-5-5-5-5X--------------------------------------|
|-8----8-8-8X--5----5-5-5-5-5-5X--5----5-5-5X---3----3-3-3-3-3-3/-----|
|-8----8-8-8X--3-3--3-3-3-3-3-3X--5----5-5-5X---3----3-3-3-3-3-3/-----|
|-6—6--6-6-6X---------------------3-3--3-3-3X---1-1--1-1-1-1-1-1/-----|

|---------------------------------------------------------------------|
|---------------------------------------------------------------------|
|--------------5----5-5-5-5-5-5X---------------8----8-8-8-8-8-8X------|
|-8----8-8-8X--5----5-5-5-5-5-5X--5----5-5-5X--8----8-8-8-8-8-8X------|
|-8----8-8-8X--3—3--3-3-3-3-3-3X--5----5-5-5X--6-6--6-6-6-6-6-6X------|
|-6—6--6-6-6X---------------------3-3--3-3-3X-------------------------|

|---------------------------------------------------------------------|
|---------------------------------------------------------------------|
|--------------5----5-5-5-5-5-5X--------------------------------------|
|-8----8-8-8X--5----5-5-5-5-5-5X--5----5-5-5X---3----3-3-3-3-3-3/-----|
|-8----8-8-8X--3-3--3-3-3-3-3-3X--5----5-5-5X---3----3-3-3-3-3-3/-----|
|-6—6--6-6-6X---------------------3-3--3-3-3X---1-1--1-1-1-1-1-1/-----|


|---------------------------------------------------------------------|
|---------------------------------------------------------------------|
|--------------5----5-5-5-5-5-5X---------------8----8-8-8-8-8-8-------|
|-8----8-8-8X--5----5-5-5-5-5-5X--5----5-5-5X--8----8-8-8-8-8-8-------|
|-8----8-8-8X--3—3--3-3-3-3-3-3X--5----5-5-5X--6-6--6-6-6-6-6-6-------|
|-6—6--6-6-6X---------------------3-3--3-3-3X-------------------------|

Outro: (slow paced rhythm –Distortion-)

|-----------------------------|
|-----------------------------|
|-3~--------------------------|
|-3~--3-3-3-3--5~~~-----------|
|-1~--3-3-3-3--5~~~-----------|
|-----1-1-1-1--3~~~-----------|
                     (fade)


Lyrics:

Let's admire the pattern forming…
Murderous filigree…
I'm caught in the twisting of the vine…
Go ascend with ivy climbing...
Ignore and leave for me…
The headstone crumbling behind…

I can't help my laughter as she cries.
My soul brings tears to angelic eyes. 

Let's amend the classic story…
Close it so beautifully…
I'll let animosity unwind…
Steal away the darkened pages…
Hidden so shamefully…
I'll still feel the violence of the lines…

I can't stand my laughter as they cry. 
My soul brings tears, to angelic eyes. 
And miles away, my mother cries. 
Omnipotence, nurturing malevolence!

I can't stand my laughter as they cry. 
My soul brings tears, to angelic eyes. 
And miles away, my mother cries. 
Omnipotence, nurturing malevolence!
Comments