Afi - Fall Children Chords & Tabs

 

Fall Children Chords & Tabs

Afi Chords & Tabs

Version: 1 Type: Bass Tab 0 ratings
1 star 2 stars 3 stars 4 stars 5 stars
comments

Fall Children Bass Tab

You and I both know I didn't write this tab, so I'm not even gonna be like some
people on here who take the tabs from the site [afireinside.net] and pretend
they're my own...anyway here ya go, know it's totally correct as Hunter himself wrote it...

FALL CHILDREN for bass
tabbed by Hunter (template stolen from Jade)

(remember that every note is strummed a million times)

intro:

|------------------|
|------------------|
|------------------|
|--/12---/12---7---|


verse:

|-------------------------------------------------------------------------------|
|---------------------5--------------------------------9------------------------|
|--7----5--8--7----5------3------------7----5--8--7----8--2---3-------5---------|
|------------------------------3--2-------------------------------3-------7-----|

chorus:
[ Tab from: http://www.guitartabs.cc/tabs/a/afi/fall_children_btab.html ]
|------------------------------------------------------------------------|
|------------------------------------------------------------------------|
|--7-----------5-----7---(5)------7----------5------------------------7--|
|--------3------------------------------3---------6------1---3----0------|

breakdown:

|----breakdown intro-----|-----------------first half of breakdown----------------------|
|------------------------|-----------------------------------------------------------7--|
|---7----------7-5-------|---------7----------5-------------------7---------5-----------|
|--/-----0----/----5-3-3-|-----0-------7-8--------5-7--5-3-2-0--------7-8-------7-------|

second half of the breakdown where Dave is singing alone:

|--------------------------------------------------------------|
|-----------------------------------------------------------9--|
|------7----------5-------------------7----------5---------/---|
|--0-------7-8--------5-7--5-3-2-0--------7-8---------7--------|

this is the final part with the whoahs:

|-----------------------------------------------------|
|--------------------------------------5--------------|
|--------------5-----7-------------5-7---7-5----------|
|--0-----3-----------------0-3-5/7-----------7-5\3-0--|
Comments