Afi - Days Of The Pheonix Chords & Tabs

 

Days Of The Pheonix Chords & Tabs

Afi Chords & Tabs

Version: 1 Type: Bass Tab 0 ratings
1 star 2 stars 3 stars 4 stars 5 stars
comments

Days Of The Pheonix Bass Tab

DAYS OF THE PHOENIX BASS TAB
tabbed by Conner Blaker

Intro:

|----------------------------------|---|
|----------------------------------|---|
|----------55555-------------------|x2-|
|--77777-----------33333---55555---|---|

Verse:

|---------------------------------------------|---|
|---------------------------------------------|---|
|-----------------4-5-5-------5-----7---------|x2-|
|--7-7--/5-5--7-7-------2-3-3---4-4---5-5-5-5-|---|

|-------------------------------------------|---|
|-------------------------------------------|---|
|--------------4-5-5------------------------|x2-|
|7-7--/5-5--7-7-------2-3-3-3-4-4-4-5-5-5-5-|---|

|-------------------|---|
|-------------------|---|
|-------------------|x1-|
|--3-3-3-3-5-5-5-5--|---|


Chorus:
[ Tab from: http://www.guitartabs.cc/tabs/a/afi/days_of_the_pheonix_btab.html ]
|-----------------------------------|---|-----------------------------------|---|
|-----------------------------------|---|-----------------------------------|---|
|-----------------10-10-10-10-10-10-|x3-|----------------10-10-10/12-12-12--|x1-|
|--7-7-7/10-10-10-------------------|---|-7-7-7/10-10-10--------------------|---|



post chorus: (same as intro)

|--------------------------------|---|
|--------------------------------|---|
|----------55555-----------------|x2-|
|--77777-----------33333---55555-|---|


breakdown:

|---------------------------------|
|---------------------------------|
|---------------------------------|
|--7---5---3---5---7---5---3---5--|

|----------------------------------------------------------------|
|-----9------7------5------7------9------7------5------4---------|
|----------------------------------------------------------------|
|--7----7-5----5-3----3-5----5-7----7-5----5-3----3-2----2-3--5--|
Comments