Afi - Dancing Through Sunday Chords & Tabs

 

Dancing Through Sunday Chords & Tabs

Afi Chords & Tabs

Version: 1 Type: Tab 0 ratings
1 star 2 stars 3 stars 4 stars 5 stars
comments

Dancing Through Sunday Tab

AFI - Dancing Through Sunday
By:Andrew Mcshan(Guitarguyx182@belg88.com)

Intro
e|--------------------------------------------------------------------------|
B|--------------------------------------------------------------------------|
G|-15-14-13-11-8------------------------------------------------------------|
D|-x--x--x--x--x------------------------------------------------------------|
A|-13-12-11-9--6------------------------------------------------------------|
E|--------------------------------------------------------------------------|
Verse
e|--------------------------------------------------------------------------|
B|--------------------------------------------------------------------------|
G|--8-4-6---8-4-6--8-10--8-11-8---4-6-15-14-13-11-8-4--6--------------------|
D|--8-4-6---8-4-6--x-x---x-x--x---4-6-x--x--x--x--x-4--6--------------------|
A|--6-2-4---6-2-4--6-8---6-9--6---2-4-13-12-11-10-6-2--4--------------------|
E|--------------------------------------------------------------------------|
Chorus
e|--------------------------------------------------------------------------|
B|--------------------------------------------------------------------------|
G|----------8-------8-----11/10/11/8------8----11-13-14---------------------|
D|---4------8---4---8-----x-/x-/x-/x--4---8----x--x--x----------------------|
A|---4------6---4---6-----9-/8-/9-/6--4---6----9--11-12---------------------|
E|---2----------2---------------------2-------------------------------------|
Bridge
e|--------------------------------------------------------------------------|
B|----------------------------------------4/2-------------------------------|
G|---8~~-8-6h6p6-6-5h5p5-5-4p4h4-4-3-1----------8---11---13-15---8----------|
D|---8~~-x------------------------------4-------8---11---13-15---x----------|
A|---6~~-6--------------------------------------6---9----11-13---6----------|
E|--------------------------------------------------------------------------|

Solo tabbed by Womenfolk55@hotmail.com
[ Tab from: http://www.guitartabs.cc/tabs/a/afi/dancing_through_sunday_tab.html ]
|--------11h-14p-11------11h-14p-11-------------------------------------------
|----11--------------14---------------14-11h-14p-11-----11h-14p-11----11------
|---b13---------------------------------------------13--------------13--------
|-----------------------------------------------------------------------------
|-----------------------------------------------------------------------------
|-----------------------------------------------------------------------------

|-----------------------------------------------------------------------------
|-----------------------------------------------------------------------------
|--13p11--13p11----11---------------------------------------------------------
|---------------13----13p11--13p11--------------------------------------------
|-----------------------------------------13p11--13p11--11p9--11p9------------
|-----------------------------------------------------------------------11--/-

|---6-----7------9-----10----11-----------------------------------------------
|--b9---b10---b12---b13---b14---9h11p9---7h9p7---6h7p6------------------------
|--------------------------------------------------------6h8p6h8--------------
|-----------------------------------------------------------------------------
|-----------------------------------------------------------------------------
|-----------------------------------------------------------------------------

|-----------------------------------------------------------------------------
|-16--11p8-16--11p8--16--12p9-16--12p9--16--11p8-16----14p11-----11h14--------
|-T---------T--------T---------T---------T--------T----------h12--------------
|-----------------------------------------------------------------------------
|-----------------------------------------------------------------------------
|-----------------------------------------------------------------------------

|--------------------------
|--------------------------
|--b8----h11-/-15---13-----
|--------------------------
|--------------------------
|--------------------------
Hammer on the 11 with your picking hand and slide to 15 with it.


|-----------------------------------------------------------
|--11h414p11 trill-----------------------11---13-11---13----
|---------------------down bend on 13------13-------13------
|-----------------------------------------------------------
|-----------------------------------------------------------
|-----------------------------------------------------------
Comments