Afi - Cult Status Chords & Tabs

 

Cult Status Chords & Tabs

Afi Chords & Tabs

Version: 1 Type: Bass Tab 0 ratings
1 star 2 stars 3 stars 4 stars 5 stars
comments

Cult Status Bass Tab

Song:Cult Status
Band:AFI
Album:Very Proud Of Ya
tabbed by: Jake slag@midplains.net

h = Hammer On
p = Pull Off


Intro
G:---------------------------------------------------------------
D:---------------------------------------------------------------
A:--------33---------------5h7-----------------------------------
E:-7-7777----3-333//7-7777-----5-555-----------------------------
[ Tab from: http://www.guitartabs.cc/tabs/a/afi/cult_status_btab.html ]
Verse
G:---------------------------------------------------------------
D:---------------------------------------------------------------
A:---------33------------5h7-------------------------------------
E:-7777777---3333//7777777---5555--------------------------------

Chorus
G:---------------------------------------------------------------
D:---------------------------------------------------------------
A:-----55557777--------------------------------------------------
E:-7777--------5555----------------------------------------------

Bridge
G:---------------------------------------------------------------
D:---------------------------------------------------------------
A:-----5555-3h5----------------------------------

Comments